Oops, an error
Loading. Please wait.

Right Turn Clyde bass

version 1
version 1

Whole song

Interactive

269 views 1 this week
no commentswrite comment
1 2 3 4 5
3 more votes to show rating
add to favorites
×
Save as Personal and add changes to this tab that will be seen only by you. Learn more ›
×
You can save this tab as Personal to edit and correct it or add notes. All changes will be seen only by you. Learn more »
launch autoscroll
font size
0
reset
guitar tuner
edit
Autoscroll
slow
fast
+/-
esc
set tempo
stop
Difficulty
-------------------------------------------------------------------------------
			     RIGHT TURN CLYDE - Bloodhound Gang
-------------------------------------------------------------------------------

Tabbed By : Christian Hagel
e-mail: ch.hagel@gmail.com

Tuning: Standart EADG

One cipher/dash = one sixteenth note/pause
11 or 33 or 55 means 1 and another 1 or 3 and another 3 or 5 and another 5!

INTRO: (0:00 - 0:20)
G|--------|--------|--------|--------|--------|--------|--------|--------|
D|------3-|------3-|------5-|------5-|------7-|------7-|------7-|------7-|
A|-------3|-------3|-------5|-------5|-------7|-------7|-------7|-------7|
E|1-1-----|1-1-----|3-3-----|3-3-----|5-5-----|5-5-----|5-5-----|5-5-----|
(2x)

VERSE Part I: (0:20-0:40)
G|--------|--------|--------|--------|--------|--------|--------|--------|
D|--------|--------|--------|--------|--------|--------|--------|--------|
A|--------|--------|--------|--------|--------|--------|--------|--------|
E|11-----1|1-------|33-----3|3-------|55-----5|5-------|55-----5|5-------|
(2x)

VERSE Part II: (0:40 - 1:01)
G|--------|--------|--------|--------|--------|--------|--------|--------|
D|--------|--------|--------|--------|--------|--------|--------|--------|
A|--------|--------|--------|--------|--------|--------|--------|--------|
E|1-1-1-1-|1-1-1-1-|3-3-3-3-|3-3-3-3-|5-5-5-5-|5-5-5-5-|5-5-5-5-|5-5-5-5-|
(2x)

CHORUS: (1:01-1:21)
G|--------|--------|--------|--------|--------|--------|--------|--------|
D|--------|--------|--------|--------|--------|--------|--------|--------|
A|--------|--------|--------|--------|--------|--------|--------|--------|
E|1-1-----|--------|3-3-----|--------|55555555|55555555|55555555|55555555|
(2x)

INTRO (1:21-1:41)
(2x)

VERSE Part I (1:41-2:01)
(2x)

VERSE Part II (2:01-2:22)
(2x)

CHORUS (2:22-2:42)
(2x)

INTRO (2:42-3:02)
(2x)

NO BASS (3:02-3:43)

OPERA SINGERS PART I: (3:43-4:03)
G|--------|--------|--------|--------|--------|--------|--------|--------|
D|--------|--------|--------|--------|--------|--------|--------|--------|
A|--------|--------|--------|--------|--------|--------|--------|--------|
E|1-------|--------|3-------|--------|5-------|--------|5-------|--------|
(2x)

OPERA SINGERS PART II: (4:03-5:04)
G|--------|--------|--------|--------|--------|--------|--------|--------|
D|------3-|------3-|------5-|------5-|------7-|------7-|------7-|------7-|
A|-------3|-------3|-------5|-------5|-------7|-------7|-------7|-------7|
E|1-1-1---|1-1-1---|3-3-3---|3-3-3---|5-5-5---|5-5-5---|5-5-5---|5-5-5---|
(6x)

FADE OUT: INTRO (5:04-5:24)
Suggest correction
Creating personal tab
Creating personal tab
You can edit any tab online and save it as your Personal.

You can edit, replace or remove any tab part or add personal notes – all changes will be seen only by you.

Personal tabs can be accessed anytime from any device, even offline.
Learn more »
Give kudos to tab author, rate the tab!
1 2 3 4 5
comments
print report bad tab
guest
Wanna post a correction for this tab? Suggest correction