Oops, an error
Loading. Please wait.

Something Diabolical tab

version 4
version 4

Whole song

3,442 views 1 this week
1 commentread comment
1 2 3 4 5
x 3
add to favorites
×
Save as Personal and add changes to this tab that will be seen only by you. Learn more ›
×
You can save this tab as Personal to edit and correct it or add notes. All changes will be seen only by you. Learn more »
launch autoscroll
font size
0
reset
how to read this tab
guitar tuner
edit
Autoscroll
slow
fast
+/-
esc
set tempo
stop
Author
Difficulty
Artist: The Bloodhound Gang
Song: Something Diabolical
Tabbed by: Dolphin

The song is very simple, so I doubt you will have any problems with it.
Ok, here it goes. The tuning for guitar should be standart eBGDAE.
There are only two "cuts" played by guitar - the intro-like one, and
the chorus one. Both are really simple, and, as I've mentioned above,
it shouldn't be a problem to learn to play the song in about 10 minutes.
Wish you luck!



Intro (first time played at 0:50)
|-----|--------------|--------------|-------------|----------|--------|
|-----|--------------|--------------|-------------|----------|--------|
|-----|--------------|--------------|-------------|----------|--------|
|-2-2-|-2-4--5--2--2-|-2-4--0--2--2-|-2-4--5--7-7-|-9--10-10-|-5--3-2-|
|-----|--------------|--------------|-------------|----------|--------|
|-----|--------------|--------------|-------------|----------|--------|

Chorus (first time played at 2:00)
|-----------|-----------|-----------|
|-----------|-----------|-----------|
|-----------|-----------|-----------|
|-----0---1-|-----------|-----0---1-|
|-----------|-2-3-5-----|-----------|
|-2-3---2---|-------3-5-|-2-3---2---|

For any comments mailto: dolphins_mail@mail.ru

            
            
Suggest correction
Creating personal tab
Creating personal tab
You can edit any tab online and save it as your Personal.

You can edit, replace or remove any tab part or add personal notes – all changes will be seen only by you.

Personal tabs can be accessed anytime from any device, even offline.
Learn more »
Give kudos to tab author, rate the tab!
1 2 3 4 5
comments
print report bad tab
1 comment total.
0 reply
Adoes 10 Mar 02, 2008 09:45 AM

bang on, good job.

guest
You may want to rate the tab now too:
select rating
Wanna post a correction for this tab? Suggest correction