Oops, an error
Loading. Please wait.
We have an official The Bad Touch tab made by UG professional guitarists. Check out the tab »
×
4,660 views 3 this week
2 commentsread comments
1 2 3 4 5
x 7
add to favorites
×
Save as Personal and add changes to this tab that will be seen only by you. Learn more ›
×
You can save this tab as Personal to edit and correct it or add notes. All changes will be seen only by you. Learn more »
launch autoscroll
font size
0
reset
guitar tuner
edit
Autoscroll
slow
fast
+/-
esc
set tempo
stop
The Bad Touch
by The BloodHound Gang
tabbed by Troll (mochunk@musician.org)

bassline at beginning and somewhere in the middle as well

-------------------------------------1515-12-------------------------|
--------13-15----13-15-13----13--------------15--------15-13---13h15-|
-15-1515------15----------15---15-13------------15--11-------15------|
---------------------------------------------------------------------|

for the verses just do some octaves hitting the highs on the upbeat opposite 
the bass drum. classic dance style. i like to slap it and mix it up and just 
mess around. after all i think its a synth bass anyways.

--5-5-5-5-8-8-8-8-----------------|
------------------8-8-8-8-6-6-6-6-|
-3-3-3-3-6-6-6-6------------------|
-----------------6-6-6-6-4-4-4-4--|

pretty simple eh?

"GETTIN' HORNY NOW!..."

i couldnt help but repost this after i figured it out cuz i thought it was a 
groovy little bassline for the intro and chorus parts i wanted to know it. 
then i looked up the tab and saw it was way off. so here you are. enjoy...

all hate mail can be directed to mochunk@musician.org HI #bassplayer EFNet 
and victorwooten.com chat.

            
            
Suggest correction
Creating personal tab
Creating personal tab
You can edit any tab online and save it as your Personal.

You can edit, replace or remove any tab part or add personal notes – all changes will be seen only by you.

Personal tabs can be accessed anytime from any device, even offline.
Learn more »
comments
print report bad tab
2 comments total.
0 reply
cooper665 40 Aug 09, 2008 02:25 AM

i think the bass at the beggining is:
----------------------------1515-12----------------------------------
--------13-15----13-15-13-----------15--------15-13---13h15----------
-15-1515------15----------------------15--11-------15----------------
---------------------------------------------------------------------

0 reply
phantom_bassist 10 Nov 02, 2008 06:19 PM

yeah i think your right

guest
Wanna post a correction for this tab? Suggest correction