Oops, an error
Loading. Please wait.

The Roof Is On Fire Tab

version 1
version 1

Whole song

Interactive

26,743 views 3 this week
5 commentsread comments
1 2 3 4 5
x 7
add to favorites
×
Save as Personal and add changes to this tab that will be seen only by you. Learn more ›
×
You can save this tab as Personal to edit and correct it or add notes. All changes will be seen only by you. Learn more »
save as personal
new!
launch autoscroll
font size
0
reset
how to read this tab
guitar tuner
Autoscroll
slow
fast
+/-
esc
set tempo
stop
Spencer Reily
faben2005@hotmail.com

Bloodhound gang-  The roof is one fire
This song is really easy
PLAY ON ACOUSTIC FOR INTRO< THEN VERSE IS ELECTRIC
Intro (8X)
    G                Em
e---3--3-----3---3------0-----0---0--
B---0--0-----0---0------0-----0---0--
G---0--0-----0---0------0-----0---0--
D---0-----0----0---0--2----2----2---2
A---2-----2----2---2--2----2----2---2
E---3-----3----3---3--0----0----0---0

Verse
   G5              E5
P.M .............  .............
e-------------------------------
B-------------------------------
G-------------------------------
D---5-5-5-5-5-5-5--2-2-2-2-2-2-2
A---5-5-5-5-5-5-5--2-2-2-2-2-2-2
E---3-3-3-3-3-3-3--0-0-0-0-0-0-0


Just play intro, chorus, intro, chorus..for the rest of the song

Its just G E G E G E G threoughout the song
Suggest correction
comments
print report bad tab
5 comments total. Showing first comments.
0 reply
vexiliation 30 Mar 23, 2002 07:00 PM

ok, your a tool. Thats not how it goes at all.. first of all its in drop D.
D-5-5-5-5-5-5--7-7-3-3-3-3-3-3-0-0
A-5-5-5-5-5-5--7-7-3-3-3-3-3-3-0-0
D-5-5-5-5-5-5--7-7-3-3-3-3-3-3-0-0

0 reply
vexiliation 30 Mar 23, 2002 07:00 PM

Ok, i was drunk when u wrote that :P I THINK this one is right... it sounds right but i dont know how to make the intro sound good in drop D. :P

D-5-5-5-5-5-5-9-9-2-2-2-2-2-2-0-0
A-5-5-5-5-5-5-9-9-2-2-2-2-2-2-0-0
D-5-5-5-5-5-5-9-9-2-2-2-2-2-2-0-0

0 reply
vexiliation 30 Mar 23, 2002 07:00 PM

Ok, i was drunk when u wrote that :P I THINK this one is right... it sounds right but i dont know how to make the intro sound good in drop D. :P

D-5-5-5-5-5-5-9-9-2-2-2-2-2-2-0-0
A-5-5-5-5-5-5-9-9-2-2-2-2-2-2-0-0
D-5-5-5-5-5-5-9-9-2-2-2-2-2-2-0-0

guest
Wanna post a correction for this tab? Suggest correction