Oops, an error
Loading. Please wait.

Three Point One Four tab

version 3
version 3

Whole song

Interactive

7,421 views 3 this week
1 commentread comment
1 2 3 4 5
x 5
add to favorites
×
Save as Personal and add changes to this tab that will be seen only by you. Learn more ›
×
You can save this tab as Personal to edit and correct it or add notes. All changes will be seen only by you. Learn more »
launch autoscroll
font size
0
reset
how to read this tab
guitar tuner
edit
Autoscroll
slow
fast
+/-
esc
set tempo
stop
Author
Difficulty
-------------------------------------------------------------------------------
|||||                        Three Point One Four - Bloodhound Gang       |||||
-------------------------------------------------------------------------------
Tabbed by: Cody "Da Rody" Nation
Email: mcoollc@hotmail.com

Tuning: Standard (EADGBe)
     
This is my first tab and it is rather easy. Any questions, email me.
  Guitar 1 and 2
e|-------------------------------------------------------| X 3
B|--7--7--5---5--7--7----5-7-8-5-------------------------|
G|---7--7--6--------7--7---------------------------------|
D|----------7--------------------------------------------|
A|-------------------------------------------------------|
E|-------------------------------------------------------|
             
Then  play this after the third time

e|-------------------------------------------------------| X 1
B|-----------7--7--5---5--7-7-7-7-10-10-10-10------------|
G|------------7--7--6------------------------------------|
D|-------------------7-----------------------------------|
A|-------------------------------------------------------|
E|-------------------------------------------------------|

e|-------------------------------------------------------| X 2
B|-------------------------------------------------------|
G|--7-7-7----------6-4-4-4----------6--------------------|
D|--7-7-7-4-7-7-7--6-4-4-4-4-7-7-7--6--------------------|
A|--5-5-5-4-7-7-7--4-2-2-2-4-7-7-7--4--------------------|
E|--------2-5-5-5----------2-5-5-5-----------------------|
         
Now just bass until we get to the chorus

e|-------------------------------------------------------| X 4
B|-------------------------------------------------------|
G|---7-7-7-7---------4-4-4-4-----------------------------|
D|---7-7-7-7-7-7-7-7-4-4-4-4-7-7-7-7---------------------|
A|---5-5-5-5-7-7-7-7-2-2-2-2-7-7-7-7---------------------|
E|-----------5-5-5-5---------5-5-5-5---------------------|
         
e|-------------------------------------------------------| X 2
B|-------------------------------------------------------|
G|--7-7-7---------6-4-4-4---------6----------------------|
D|--7-7-7-4-7-7-7-6-4-4-4-4-7-7-7-6----------------------|
A|--5-5-5-4-7-7-7-4-2-2-2-4-7-7-7-4----------------------|
E|--------2-5-5-5---------2-5-5-5------------------------|

e|-------------------------------------------------------| X 4
B|-------------------------------------------------------|
G|---7-7-7-7---------4-4-4-4-----------------------------|
D|---7-7-7-7-7-7-7-7-4-4-4-4-7-7-7-7---------------------|
A|---5-5-5-5-7-7-7-7-2-2-2-2-7-7-7-7---------------------|
E|-----------5-5-5-5---------5-5-5-5---------------------|

Guitar 1
e|-------------------------------------------------------| X 4
B|-------------------------------------------------------|
G|---7-7-7-7---------4-4-4-4-----------------------------|
D|---7-7-7-7-7-7-7-7-4-4-4-4-7-7-7-7---------------------|
A|---5-5-5-5-7-7-7-7-2-2-2-2-7-7-7-7---------------------|
E|-----------5-5-5-5---------5-5-5-5---------------------|

Guitar 2(Played in background)
e|-------------------------------------------------------| X 3
B|--7--7--5---5--7--7----5-7-8-5-------------------------| 
G|---7--7--6--------7--7---------------------------------|
D|----------7--------------------------------------------|
A|-------------------------------------------------------|
E|-------------------------------------------------------|

e|-------------------------------------------------------| X 1
B|-----------7--7--5---5--7-7-7-7-10-10-10-10------------|
G|------------7--7--6------------------------------------|
D|-------------------7-----------------------------------|
A|-------------------------------------------------------|
E|-------------------------------------------------------|

Guitar 1
e|-------------------------------------------------------| X 8
B|-------------------------------------------------------|
G|--7-7-7----------6-4-4-4----------6--------------------|
D|--7-7-7-4-7-7-7--6-4-4-4-4-7-7-7--6--------------------|
A|--5-5-5-4-7-7-7--4-2-2-2-4-7-7-7--4--------------------|
E|--------2-5-5-5----------2-5-5-5-----------------------|

Guitar 2 (Playing in background)
e|-------------------------------------------------------| X 16
B|----7---7---10-10-10-10--------------------------------|
G|------7---7--------------------------------------------|
D|-------------------------------------------------------|
A|-------------------------------------------------------|
E|-------------------------------------------------------|

===============================================================================

            
            
Suggest correction
Creating personal tab
Creating personal tab
You can edit any tab online and save it as your Personal.

You can edit, replace or remove any tab part or add personal notes – all changes will be seen only by you.

Personal tabs can be accessed anytime from any device, even offline.
Learn more »
comments
print report bad tab
1 comment total.
0 reply
CodyDaRody 41 May 01, 2006 09:33 AM

By the way, I think they use distortion in the song.

guest
You may want to rate the tab now too:
select rating
Wanna post a correction for this tab? Suggest correction