Oops, an error
Loading. Please wait.

Stone Cold Hearted bass

version 1
version 1

Whole song

Interactive

164 views 1 this week
no commentswrite comment
1 2 3 4 5
3 more votes to show rating
add to favorites
×
Save as Personal and add changes to this tab that will be seen only by you. Learn more ›
×
You can save this tab as Personal to edit and correct it or add notes. All changes will be seen only by you. Learn more »
launch autoscroll
font size
0
reset
guitar tuner
edit
Autoscroll
slow
fast
+/-
esc
set tempo
stop
-------------------------------------------------------------------------------
                             STONE COLD HEARTED - Bloodline
-------------------------------------------------------------------------------


Tabbed by: Isaias Garcia (TexasFury)

Tuning: Half-step down


      Intro                                                         
      S S S S S E.    E  E  Q       S S S S S E.    E  E  Q     
F#||-----------------------------|-----------------------------|
C#||-----------------------------|-----------------------------|
G#||--5-3----------------3-------|--5-3----------------3-------|
D#||------5-4-3-1---3g5-----3----|------5-4-3-1---3g5-----3----|


  S S S S S E.    E  E  Q       S S S S S E.    E  E  Q     
-----------------------------|-----------------------------||
-----------------------------|-----------------------------||
--5-3----------------3-------|--5-3----------------3-------||
------5-4-3-1---3g5-----3----|------5-4-3-1---3g5-----3----||


  Pre-verse 1                                                   
  E.  S E  E  E  E  E  E     E.  S E  E  E  E  E  E   
--------------------------|--------------------------|
--------------------------|-----------------------3--|
--5---3-5--------------3--|--5---3-5-----------------|
-----------1--3--4--5-----|-----------1--3--4--5-----|


  E.  S E  E  E  E  E  E     E.  S E  S S E  E  E  E   
--------------------------|---------------------------||
--------------------------|------------------------3--||
--5---3-5--------------3--|--5---3-5------------------||
-----------1--3--4--5-----|-----------1-2-3--4--5-----||


  Verse 1                                                  
  E.  S E  E  E  E  E  E     E.  S E  E  E  E  E  E   
--------------------------|--------------------------|
--------------------------|-----------------------3--|
--5---3-5--------------3--|--5---3-5-----------------|
-----------1--3--4--5-----|-----------1--3--4--5-----|


  E.  S E  E  E  E  E  E     E.  S E  E  E  E  E  E   
--------------------------|--------------------------|
--------------------------|-----------------------3--|
--5---3-5--------------3--|--5---3-5-----------------|
-----------1--3--4--5-----|-----------1--3--4--5-----|


  E.  S E  E  E  E  E  E     E.  S E  E  E  E  E  E   
--------------------------|--------------------------|
--------------------------|-----------------------3--|
--5---3-5--------------3--|--5---3-5-----------------|
-----------1--3--4--5-----|-----------1--3--4--5-----|


  E.  S E  E  E  E  E  E     E  S S E  E  E  E  E  S S  
--------------------------|----------------------------||
--------------------------|----------------------------||
--5---3-5--------------3--|--5--5-3-5--8--7--3--5--3---||
-----------1--3--4--5-----|--------------------------5-||


  Chorus 1                                                                           
  Q    E.  S E  E  Q       E  E  Q    E  E  E  S S    E.  S E  E  E  E  E  E   
------------------------|--------------------------|--------------------------|
------------------------|--------------------------|--------------------------|
------------------------|--1--1--1----1--1--1--1-3-|--5---3-5--------------3--|
--3----3---0-3--3--3----|--------------------------|-----------1--3--4--5-----|


  E  S S E  E  E  E  E  S S    Q    E.  S E  E  Q       Q    Q    E  E  E  E   
----------------------------|------------------------|------------------------|
----------------------------|------------------------|------------------------|
--5--5-3-5--8--7--3--5--3---|------------------------|--1----1----1--1--1--1--|
--------------------------5-|--3----3---0-3--3--3----|------------------------|


                                                        Pre-verse 2                       
  Q    Q    E  E  E  E     E  E  E  E  E  E  E  E       E.  S E  E  E  E  E  E   
------------------------|---------------------------||--------------------------|
-------7----7-----7--7--|---------------------------||--------------------------|
--0------------0--------|--3--3--3--3--3--3--3--3/--||--5---3-5--------------3--|
------------------------|---------------------------||-----------1--3--4--5-----|


  E.  S E  E  E  E  E  E     E.  S E  E  E  E  E  E   
--------------------------|--------------------------|
-----------------------3--|--------------------------|
--5---3-5-----------------|--5---3-5--------------3--|
-----------1--3--4--5-----|-----------1--3--4--5-----|


                                Verse 2                       
  E  S S E  E  E  E  E  S S     E.  S E  E  E  E  E  E   
----------------------------||--------------------------|
----------------------------||--------------------------|
--5--5-3-5--8--7--3--5--3---||--5---3-5--------------3--|
--------------------------5-||-----------1--3--4--5-----|


  E.  S E  E  E  E  E  E     E.  S E  E  E  E  E  E   
--------------------------|--------------------------|
-----------------------3--|--------------------------|
--5---3-5-----------------|--5---3-5--------------3--|
-----------1--3--4--5-----|-----------1--3--4--5-----|


  E.  S E  E  E  E  E  E     E.  S E  E  E  E  E  E   
--------------------------|--------------------------|
-----------------------3--|--------------------------|
--5---3-5-----------------|--5---3-5--------------3--|
-----------1--3--4--5-----|-----------1--3--4--5-----|


  E.  S E  E  E  E  E  E     E.  S E  E  E  E  E  E   
--------------------------|--------------------------|
-----------------------3--|--------------------------|
--5---3-5-----------------|--5---3-5--------------3--|
-----------1--3--4--5-----|-----------1--3--4--5-----|


                                Chorus 2                     
  E  S S E  E  E  E  E  S S     Q    E.  S E  E  Q     
----------------------------||------------------------|
----------------------------||------------------------|
--5--5-3-5--8--7--3--5--3---||------------------------|
--------------------------5-||--3----3---0-3--3--3----|


  E  E  E.  S E  E  E  S S    E.  S E  E  E  E  E  E   
---------------------------|--------------------------|
---------------------------|--------------------------|
--1--1--1---0-1--1--1--1-3-|--5---3-5--------------3--|
---------------------------|-----------1--3--4--5-----|


  E  S S E  E  E  E  E  S S    Q    E.  S E  E  Q       Q    Q    E  E  Q     
----------------------------|------------------------|-----------------------|
----------------------------|------------------------|-----------------------|
--5--5-3-5--8--7--3--5--3---|------------------------|--1----1----1--1--1----|
--------------------------5-|--3----3---0-3--3--3----|-----------------------|


                                                     Guitar Break                           
  Q    Q    E  E  E  E     E  E  E  E  Q    Q        S S S S S E.    E  E  Q     
------------------------|------------------------||-----------------------------|
-------7----7-----7-----|------------------------||-----------------------------|
--0------------0-----0--|--3--3--3--3--3---------||--5-3----------------3-------|
------------------------|------------------------||------5-4-3-1---3g5-----3----|


  S S S S S E.    E  E  Q       S S S S S E.    E  E  Q     
-----------------------------|-----------------------------|
-----------------------------|-----------------------------|
--5-3----------------3-------|--5-3----------------3-------|
------5-4-3-1---3g5-----3----|------5-4-3-1---3g5-----3----|


                                 Guitar Solo                           
  S S S S S E.    E  E  Q        E.  S E    E  S S E  E  S S  
-----------------------------||------------------------------|
-----------------------------||------------------------------|
--5-3----------------3-------||--3---1-3-------1---1--3--1---|
------5-4-3-1---3g5-----3----||-----------1g3----3---------3-|


  E.  S E    E  S S E  E  S S    E.  S E    E  S S E  E  S S  
------------------------------|------------------------------|
------------------------------|------------------------------|
--3---1-3-------1---1--3--1---|--3---1-3-------1---1--3--1---|
-----------1g3----3---------3-|-----------1g3----3---------3-|


  E.  S E    E  S S E  E  S S    E.  S E    E  S S E  E  S S  
------------------------------|------------------------------|
------------------------------|------------------------------|
--3---1-3-------1---1--3--1---|--3---1-3-------1---1--3--1---|
-----------1g3----3---------3-|-----------1g3----3---------3-|


  E.  S E    E  S S E  E  S S    E.  S E    E  S S E  E  S S  
------------------------------|------------------------------|
------------------------------|------------------------------|
--3---1-3-------1---1--3--1---|--3---1-3-------1---1--3--1---|
-----------1g3----3---------3-|-----------1g3----3---------3-|


  E.  S E    E  S S E  E  S S    E.  S E    E  S S E  E  S S  
------------------------------|------------------------------|
------------------------------|------------------------------|
--3---1-3-------1---1--3--1---|--3---1-3-------1---1--3--1---|
-----------1g3----3---------3-|-----------1g3----3---------3-|


  E.  S E    E  S S E  E  S S    E.  S E    E  S S E  E  S S  
------------------------------|------------------------------|
------------------------------|------------------------------|
--3---1-3-------1---1--3--1---|--3---1-3-------1---1--3--1---|
-----------1g3----3---------3-|-----------1g3----3---------3-|


  E.  S E    E  S S E  E  S S    E.  S E    E  S S E  E  S S  
------------------------------|------------------------------|
------------------------------|------------------------------|
--3---1-3-------1---1--3--1---|--3---1-3-------1---1--3--1---|
-----------1g3----3---------3-|-----------1g3----3---------3-|


  E.  S E    E  S S E  E  S S    E.  S E    E  S S E  E  S S  
------------------------------|------------------------------|
------------------------------|------------------------------|
--3---1-3-------1---1--3--1---|--3---1-3-------1---1--3--1---|
-----------1g3----3---------3-|-----------1g3----3---------3-|


                            Guitar Break                           
  E  E  E  E  Q    Q        S  S S S S E.    E  E  Q     
------------------------||------------------------------|
------------------------||------------------------------|
------------------------||--5--3----------------3-------|
--3--3--3--3--3---------||-------5-4-3-1---3g5-----3----|


  S S S S S E.    E  E  Q       S S S S S E.    E  E  Q     
-----------------------------|-----------------------------|
-----------------------------|-----------------------------|
--5-3----------------3-------|--5-3----------------3-------|
------5-4-3-1---3g5-----3----|------5-4-3-1---3g5-----3----|


                                 Verse 3                       
  S S S S S E.    E  E  Q        E.  S E  E  E  E  E  E   
-----------------------------||--------------------------|
-----------------------------||--------------------------|
--5-3----------------3-------||--5---3-5--------------3--|
------5-4-3-1---3g5-----3----||-----------1--3--4--5-----|


  E.  S E  E  E  E  E  E     E.  S E  E  E  E  E  E   
--------------------------|--------------------------|
-----------------------3--|--------------------------|
--5---3-5-----------------|--5---3-5--------------3--|
-----------1--3--4--5-----|-----------1--3--4--5-----|


  E  E  E  E  E  E  E  E     E  E  E  E  E  E  E  E   
--------------------------|--------------------------|
-----------------------3--|--------------------------|
--5--3--5-----------------|--5--3--5--------------3--|
-----------1--3--4--5-----|-----------1--3--4--5-----|


  E.  S E  E  E  E  E  E     E.  S E  E  E  E  E  E   
--------------------------|--------------------------|
--------------------------|--------------------------|
--5---3-5--------------3--|--5---3-5--------------3--|
-----------1--3--4--5-----|-----------1--3--4--5-----|


                                Chorus 3                     
  E  S S E  E  E  E  E  S S     Q    E.  S E  E  Q     
----------------------------||------------------------|
----------------------------||------------------------|
--5--5-3-5--8--7--3--5--3---||------------------------|
--------------------------5-||--3----3---0-3--3--3----|


  E  E  E.  S E  E  E  S S    E.  S E  E  E  E  E  E   
---------------------------|--------------------------|
---------------------------|--------------------------|
--1--1--1---0-1--1--1--3-4-|--5---3-5--------------3--|
---------------------------|-----------1--3--4--5-----|


  E  S S E  E  E  E  E  S S    Q    E.  S E  E  Q     
----------------------------|------------------------|
----------------------------|------------------------|
--5--5-3-5--8--7--3--5--3---|------------------------|
--------------------------5-|--3----3---0-3--3--3----|


  E  E  E  E  E  E  E  E      E  S S E  E  E  E  E  E   
---------------------------|---------------------------|
---------------------------|---------------------------|
--1--1--1--1--1--1--1--3/--|--5--5-3-5--8--7--3--5--3--|
---------------------------|---------------------------|


  E.  S E  E  E  E  E  E     Q    E.  S E  E  Q       Q    E  S S E  E  E  S S  
--------------------------|------------------------|---------------------------|
--------------------------|------------------------|---------------------------|
--5---3-5--------------3--|------------------------|--1----1--1-0-1--1--1--1-1-|
-----------1--3--4--5-----|--3----3---0-3--3--3----|---------------------------|


  E.  S E  E  E  E  E  S S    S S S S S S E  E  E  E  S S  
---------------------------|------------------------------|
---------------------------|--5-5-5-----------------------|
--5---3-5--7--8--7--8--7-8-|--------8-8-8-7--5--3--5--3---|
---------------------------|----------------------------5-|


  Q    E.  S E  E  Q       E  E  E.  S E  E  E  E     E  E  E  E  E  E  E  E   
------------------------|--------------------------|--------------------------|
------------------------|--------------------------|--------------------------|
------------------------|--1--1--1---0-1--1--1--1--|--0--0--0--0--0--0--0--0--|
--3----3---0-3--3--3----|--------------------------|--------------------------|


                         Outro                           
  Q    Q    H            S S S S S E.    E  E  Q     
---------------------||-----------------------------|
---------------------||-----------------------------|
--3------------------||--5-3----------------3-------|
---------------------||------5-4-3-1---3g5-----3----|


  S S S S S E.    E  E  Q       S S S S S E.    E  E  Q       S S S S S E.   
-----------------------------|-----------------------------|----------------|
-----------------------------|-----------------------------|----------------|
--5-3----------------3-------|--5-3----------------3-------|--5-3-----------|
------5-4-3-1---3g5-----3----|------5-4-3-1---3g5-----3----|------5-4-3-1---|


  W                   Q     Q    H          
-------------------|----------------------||
-------------------|----------------------||
--5----------------|--5\------------------||
-------------------|----------------------||


Duration Legend
---------------
W - whole
H - half
Q - quarter
E - 8th
S - 16th

Tablature Legend
----------------
L - tied note
g - grace note
h - hammer on
p - pull off
/ -  slide into from below or out of upwards
\ -  slide into from above or out of downwards


Get my other tabs for Guitar Pro, Powertab, guitar/bass text and chords at
http://profile.ultimate-guitar.com/TexasFury/contributions/

            
            
Suggest correction
Creating personal tab
Creating personal tab
You can edit any tab online and save it as your Personal.

You can edit, replace or remove any tab part or add personal notes – all changes will be seen only by you.

Personal tabs can be accessed anytime from any device, even offline.
Learn more »
Give kudos to tab author, rate the tab!
1 2 3 4 5
comments
print report bad tab
guest
You may want to rate the tab now too:
select rating
Wanna post a correction for this tab? Suggest correction