Oops, an error
Loading. Please wait.

Straight Hate bass

version 1
version 1

Whole song

Interactive

902 views 6 this week
no commentswrite comment
1 2 3 4 5
x 3
add to favorites
×
Save as Personal and add changes to this tab that will be seen only by you. Learn more ›
×
You can save this tab as Personal to edit and correct it or add notes. All changes will be seen only by you. Learn more »
launch autoscroll
font size
0
reset
guitar tuner
edit
Autoscroll
slow
fast
+/-
esc
set tempo
stop
Atrist: Bloodsimple
Song: Straight Hate
Album: The cruel World
TUNNING: Drop A# (A# F A# D#)
Tabber: Majin Gaara

The bass tab for straight hate.
Pretty correct not sure about all but
im pretty sure about most parts. Enjoy!

INTRO
D#|------------------------------------|
A#|------------------------------------|
F |------------------------------------|
A#|-2-1-0-3--0-2-3-4-0-3-0-1-0-666-----| X3
     
(Guitar Plays end, No Bass)
|-------------------------------|
|-------------------------------|
|-------------------------------|
|-REST THIS MEASURE-------------|

VERSE
(Guitar Plays Verse, No Bass)
|-----------------------------------------|
|-----------------------------------------|
|---REST THIS MEASURE---------------------|
|-----------------------------------------| X2


PRE CHORUS
|------------------------------------|
|------------------------------------|
|------------------------------------|
|-0-0-0-3-3-3-5-5-5-3-3-3-6-6-6-5-3--| X4

CHORUS

Play the intro x1

VERSE X2

PRE CHORUS X4

CHORUS X2 

BRIDGE
|------------------------|
|------------------------|
|------------------------|
|-0-0--0-0-0-0-0--0--0---| X8



|-----------------------|
|-----------------------|
|-3---3---0---2---------| 

|------------------------------------|
|------------------------------------|
|------------------------------------|
|-2-1-0-3-0-2-3-4-0-3-0-1-0-6-6-6----| X2


CHORUS X2 (Let the last note ring)

OUTRO 

|----------------------------------------------|
|----------------------------------------------|
|----------------------------------------------|
|-2--1--0--3--0--2--3--4--0--3--0--1--0--6-6---| X3

|----------------------------------------|
|----------------------------------------|
|----------------------------------------|
|-2--1--0--3--2--3--4--3--3--1--1--6-6---| 

|----------------------------------------------|
|----------------------------------------------|
|----------------------------------------------|
|-2--1--0--3--0--2--3--4--0--3--0--1--0--6-6---| X3
 
|---------------------------------------------|
|---------------------------------------------|
|---------------------------------------------|
|-2--1--0--3--2--3--4--3--3--1--1--6-6-6-6-0--| 


            
            
Suggest correction
Creating personal tab
Creating personal tab
You can edit any tab online and save it as your Personal.

You can edit, replace or remove any tab part or add personal notes – all changes will be seen only by you.

Personal tabs can be accessed anytime from any device, even offline.
Learn more »
Give kudos to tab author, rate the tab!
1 2 3 4 5
comments
print report bad tab
guest
You may want to rate the tab now too:
select rating
Wanna post a correction for this tab? Suggest correction