Oops, an error
Loading. Please wait.

Best In Me Tab

version 1
version 1

Whole song

by Blue
47,660 views 48 this week
no commentswrite comment
1 2 3 4 5
x 17
add to favorites
×
Save as Personal and add changes to this tab that will be seen only by you. Learn more ›
×
You can save this tab as Personal to edit and correct it or add notes. All changes will be seen only by you. Learn more »
save as personal
new!
launch autoscroll
font size
0
reset
how to read this tab
guitar tuner
Autoscroll
slow
fast
+/-
esc
set tempo
stop
Author
i've been playing this song since the 1st time that the album went out to the market. and take not 
("POEPLE LOVE IT" whenever i play in front of them. in short, 
this tab is mostly accurate to the song but with a sort of small
mistake. im only human and i am not perfect. everybody can commit a mistake even how
good he/she is. right folks??
well, here's the song, hope you'll like it just like other people do.

[Intro and Verse]
    Cadd9           Am
E|---------1/3-------------0---|
B|--------1/3-------------1----|
G|------0---------------2------|
D|----2---------------2--------|
A|--3---------------0----------|
E|-----------------------------| 
        
[Bridge]
    Bm              Em            F                      G
E|--------(1)/2------------0-------------1--1-------------------3--------|
B|--------(2)/3------------0-------------1----1-----------------3----2/3-|
G|------4-----------------(0)-----------(2)-----2--------------(0)-0-----|
D|----4-----------------2-------------3----------------------0-----------|
A|--2-----------------2-------------3----------------------2-------------|
E|------------------0-------------1----------------------3---------------|

[Chorus]
    C                G                Am        G        
E|-----------------------------------------0---------3----|
B|--------1----------------3---------------1---------3----|
G|------0----0-----------0----0-----------(2)-------(0)---|
D|----2--------2-------0--------0-------2-----------(0)---|
A|--3------------3---2------------2---0-----------2-------|
E|----------------------------------------------3---------| 

    F                 Dsus2            G
E|---------1------1---------0---------------------------|
B|---------1--1-----------3----3-------------3--3-------|
G|--------(2)---2-------2---------2----------0----0-----|
D|------3-------------0--------------------0--------0---|
A|----3----------------------------------2--------------|
E|--1----------------------------------3----------------|

[Verse]
    Cadd9           Am
E|---------1/3-------------0---|
B|--------1/3-------------1----|
G|------0---------------2------|
D|----2---------------2--------| x5
A|--3---------------0----------|
E|-----------------------------| 

[Bridge]
    Bm              Em            F                      G
E|--------(1)/2------------0-------------1--1-------------------3--------|
B|--------(2)/3------------0-------------1----1-----------------3----2/3-|
G|------4-----------------(0)-----------(2)-----2--------------(0)-0-----|
D|----4-----------------2-------------3----------------------0-----------|
A|--2-----------------2-------------3----------------------2-------------|
E|------------------0-------------1----------------------3---------------|

[Chorus]
    C                G                Am        G        
E|-----------------------------------------0---------3----|
B|--------1----------------3---------------1---------3----|
G|------0----0-----------0----0-----------(2)-------(0)---|
D|----2--------2-------0--------0-------2-----------(0)---|
A|--3------------3---2------------2---0-----------2-------|
E|----------------------------------------------3---------| 

    F                 Dsus2            G
E|---------1------1---------0---------------------------|
B|---------1--1-----------3----3-------------3--3-------|
G|--------(2)---2-------2---------2----------0----0-----|
D|------3-------------0--------------------0--------0---|
A|----3----------------------------------2--------------|
E|--1----------------------------------3----------------|

Then play Cadd9 chord twice.

[Chorus]
    C                G                Am        G        
E|-----------------------------------------0---------3----|
B|--------1----------------3---------------1---------3----|
G|------0----0-----------0----0-----------(2)-------(0)---|
D|----2--------2-------0--------0-------2-----------(0)---|
A|--3------------3---2------------2---0-----------2-------|
E|----------------------------------------------3---------| 

    F                 Dsus2            G
E|---------1------1---------0---------------------------|
B|---------1--1-----------3----3-------------3--3-------|
G|--------(2)---2-------2---------2----------0----0-----|
D|------3-------------0--------------------0--------0---|
A|----3----------------------------------2--------------|
E|--1----------------------------------3----------------|

[Bridge]
    Bm              Em            F                      G
E|--------(1)/2------------0-------------1--1-------------------3--------|
B|--------(2)/3------------0-------------1----1-----------------3----2/3-|
G|------4-----------------(0)-----------(2)-----2--------------(0)-0-----|
D|----4-----------------2-------------3----------------------0-----------|
A|--2-----------------2-------------3----------------------2-------------|
E|------------------0-------------1----------------------3---------------|

[Chorus]
    C                G                Am        G        
E|-----------------------------------------0---------3----|
B|--------1----------------3---------------1---------3----|
G|------0----0-----------0----0-----------(2)-------(0)---|
D|----2--------2-------0--------0-------2-----------(0)---|
A|--3------------3---2------------2---0-----------2-------|
E|----------------------------------------------3---------| 

    F                 Dsus2            G
E|---------1------1---------0---------------------------|
B|---------1--1-----------3----3-------------3--3-------|
G|--------(2)---2-------2---------2----------0----0-----|
D|------3-------------0--------------------0--------0---|
A|----3----------------------------------2--------------|
E|--1----------------------------------3----------------|

    G
E|--------------|
B|----------0---|
G|--------2-----|
D|------0-------|
A|----2---------|
E|--3-----------|

[Last chorus] is played up a tone.
    D               A               Bm      A        G*
E|--------2---------------0--------------2-------0----------3------3--|
B|------3----3----------2----2-----------3-------2----------3--3------|
G|----2--------2------2--------2--------(4)-----(2)--------(0)---0----|
D|--0------------0--2------------2----4-------2----------0------------|
A|----------------------------------2-------0----------2--------------|
E|---------------------------------------------------3----------------|   
        
    Em             A               D             D
E|-----------------------0--0------------3/5-----------3/5-----|
B|-----------0-----------2----2--------3------3------3------3--|
G|--------0-----0------2--------2----2-------------2-----------|
D|------2------------2-------------0-------------0-------------|
A|----2------------0-------------------------------------------|
E|--0----------------------------------------------------------|

Repeat again except when you get to the G* chord play this instead.

    G          Em             A                          
E|--------3/5---------------------------------------3/5-----3p2-------2--|
B|--------3/5------------0----------0h2-2p0---------3/5--3-------3----3--|
G|-------------------0h1---0------2---------2----------------------2--2--|
D|------0----------2------------2-----------------2-------------------0--|
A|----2----------2------------0-----------------0-----------2----0-------|
E|--3----------0---------------------------------------------------------|  

that's all.. enjoy

************************************

| /    Slide up
| (n)  Ghost note
| p    Pull-off
| h    Hammer-on

************************************
Suggest correction
comments
print report bad tab
guest
You may want to rate the tab now too:
select rating
Wanna post a correction for this tab? Suggest correction