Oops, an error
Loading. Please wait.

21St Bass Tab

270 views 1 this week
no commentswrite comment
1 2 3 4 5
please rate
add to favorites
launch autoscroll
font size
0
reset
guitar tuner
Autoscroll
slow
fast
+/-
esc
set tempo
stop
Help us to improve Ultimate-Guitar.com Take our survey!
×
Contributor
Difficulty
novice
Blue October
The 21st
The Answers

Standard Tuning

This is a rather easy one and I'm surprised to see that no one has uploaded a tab yet, 
but all in all here is mine.  I think it's dead on and I hope that someone somewhere 
finds it useful.

Intro/Verse/Outro
G--------------------------------------------------]
D--------------------------------------------------]
A-3-3--3-3-3--3-3-3--3-3-2--0-0--0-0-0--0-0-0--0-0-]
E--------------------------------------------------]

G--------------------------------------------------]
D--------------------------------------------------]
A-------------------------------3-3--3-3-3--3-3*---]
E-3-1-1--1-1-1--1-1-1--1-1-3-3-------------------3-]

Chorus
G--------------------------------------------------]
D--------------------------------------------------]
A--------------------------------------------------]
E-3--3-3--3-3-1--1-1--1-1-5--5-5--5-5-0--0-0--0-0--]

That's it.  I told you it was rather easy, so get to playing it and enjoy.  It's a nice 
cool slow song.  Peace out and peace off!
Suggest correction What's this?
You can suggest a correction to this tab. Community and Mods will review your correction and vote to approve or reject it.
comments
We did not receive enough feedback on this tab! Please rate:
print report bad tab
1 2 3 4 5
I want to post or [tab]
guest
You may want to rate the tab now too:
select rating
Please do not post tabs as comments. Select "correction" instead!