Oops, an error
Loading. Please wait.

Chameleon Boy Tab

version 1
version 1

Intro

Whole song

2,368 views 6 this week
2 commentsread comments
1 2 3 4 5
please rate
add to favorites
launch autoscroll
font size
0
reset
how to read this tab
guitar tuner
Autoscroll
slow
fast
+/-
esc
set tempo
stop
Help us to improve Ultimate-Guitar.com Take our survey!
×
right so this is my first tab ever, but i really like this song and it seems to be 
so here's what i got so far in the hopes others join in...

/- finger slide

-------------------------------------------|(3x, don't play 7 til 2nd time)
-------------------------------------------|
--4--4/5-----4--4/5----(7)-----------------|
--------5-----------5----------------------|
-------------------------------------------|
-------------------------------------------|

sorry i cant more....
Suggest correction
Give kudos to tab author, rate the tab!
1 2 3 4 5
comments
print report bad tab
2 comments total.
0 reply
Adyson88 10 wrote on August 25 2007, 05:42 pm

-------------------------------------------|
--0----------0-----------------------------|
-----4/5-------4/5----(7)------------------|
--------5-----------5----------------------|
--0----------0-----------------------------|
-------------------------------------------|

Try this, i think it sounds a little better! Otherwise sounds good so far

0 reply
Thisita 51 wrote on February 10 2010, 07:45 pm

-------------------------------------------|
--1--0^1-----0-0^1--3-(0)------------------|
----------------------(2)------------------|
-------------------------------------------|
--0----------0--------(0)------------------|
-------------------------------------------|


You can try this, too. Really good though.

Sad song, sad a lot of people don't put as much thought into their lyrics as this :nod:

guest
You may want to rate the tab now too:
select rating
Please do not post tabs as comments. Select "correction" instead!