Oops, an error
Loading. Please wait.

Chameleon Boy Tab

version 1
version 1

Whole song

5,543 views 15 this week
no commentswrite comment
1 2 3 4 5
accurate
x 4
add to favorites
launch autoscroll
font size
0
reset
how to read this tab
guitar tuner
Autoscroll
slow
fast
+/-
esc
set tempo
stop
Help us to improve Ultimate-Guitar.com Take our survey!
×
Contributor
coldfry1 2,315
Blue October
Chameleon Boy
History For Sale

Intro: Repeat 3x; 2nd and 3rd time end with 
3 on the b string

e------------------------------------------|
b-------0---0h1-------0---0h1--------------|
g---------0-----0-------0-----0------------|
d-----------------0-------------0----------|
a-------0---0-------0-----0----------------|
e---------------------------------3--------|

Verse: "I change my color for you..."
e-----------------------------------------------|
b-----------------------------------------------|
g-----------0-----------------0-----------------|
d--------------------0-----------------0--------|
a-------0-3--------2------0-3--------2----------|
e----------------3-----------------3------------|

Chorus: "Standby for another break down..."
e-------x--------x--------x--------x------------------x--------x-----------|
b-------1--------0--------1--------0------------------1--------3-----------|
g-------0--------0--------0--------0------------------2--------0-----------|
d-------2--------0--------2--------0------------------2--------0-----------|
a-------3--------2--------3--------2------------------0--------2-----------|
e-------x--------3--------x--------3------------------x--------3-----------|
--------C--------G6-------C--------G6-----------------Am-------G-----------|

Verse: "So now we've come upon..."
e-----------------------------------------------|
b-----------------------------------------------|
g-----------0-----------------0-----------------|
d--------------------0-----------------0--------|
a-------0-3--------2------0-3--------2----------|
e----------------3-----------------3------------|

Violin part:
e--------------------------------------------------------------------------|
b-----------0-3-1---0-1---0-0-0-1-0--------------0-3-1---0-1---0-0-0-1-0---|
g-------0-2-------------------------0--------0-2-------------------------0-|
d--------------------------------------------------------------------------|
a--------------------------------------------------------------------------|
e--------------------------------------------------------------------------|

"And while I play instead..."

e---------------------------------------------------------------------|
b-------0-1---0-1---0-0-0-1-0----------0-1---0-1---0-0-0-1-0-3--------|
g-----------------------------0---------------------------------------|
d---------------------------------------------------------------------|
a---------------------------------------------------------------------|
e---------------------------------------------------------------------|

Chorus "Standby for another break down..."
e-------x--------x--------x--------x---------x--------x--------x--|
b-------1--------0--------1--------0---------1--------1--------1--|
g-------0--------0--------0--------0---------0--------0--------0--|
d-------2--------0--------2--------0---------2--------0--------2--|
a-------3--------2--------3--------2---------3--------2--------3--|
e-------x--------3--------x--------3---------x--------3--------x--|
--------C--------G6-------C--------G6--------C--------G6-------C--|

e-------x-------x-------x-|
b-------0-------1-------3-|
g-------0-------2-------0-|
d-------0-------2-------0-|
a-------2-------0-------2-|
e-------3-------x-------3-|
--------G6------Am--------|G

Verse: "I try to think of all the people I looked up to..."
e-----------------------------------------------|
b-----------------------------------------------|
g-----------0-----------------0-----------------|
d--------------------0-----------------0--------|
a-------0-3--------2------0-3--------2----------|
e----------------3-----------------3------------|

Violin part:
e---------------------------------------------|
b--------0-0h1---0-0h1---0-0h1---0-0h1--------|
g---------------------------------------------|
d---------------------------------------------|
a---------------------------------------------|
e---------------------------------------------|

Guitar solo:
e--------------------------|
b--7-8^-7-8^-7-7-8^-7-8^-7-|
g--------------------------|
d--------------------------|
a--------------------------|
e--------------------------|

e-----------------------------------------------|
b--3--1-3--1--3--1--3--1--0-----0----0-----0----|
g----------------------------0----0-----0-----0-|
d-----------------------------------------------|
a-----------------------------------------------|
e-----------------------------------------------|

Violin:
e--------------------------------------------------------------------------|
b-------0-0h1-----0-0h1-----0-0-0-1-0---------0-0h1-----0-0h1-----0-0-0-1--|
g------------0---------0---------------------------0---------0-------------|
d--------------------------------------------------------------------------|
a--------------------------------------------------------------------------|
e--------------------------------------------------------------------------|

Chorus: "Standby for another break down..."
e-------x--------x--------x--------x------------------|
b-------1--------0--------1--------0------------------|
g-------0--------0--------0--------0------------------|
d-------2--------0--------2--------0------------------|
a-------3--------2--------3--------2------------------|
e-------x--------3--------x--------3------------------|
--------C--------G6-------C--------G6-----------------|

Outro:
e---------------------------------x--------|
b-------0-0h1---0-0h1---0-0-0-1-0-3--------|
g---------------------------------0--------|
d---------------------------------0--------|
a---------------------------------2--------|
e---------------------------------3--------|

Questions?
Email at cory.roesch@yahoo.com
Suggest correction new What's this?
You can suggest a correction to this tab. Community and Mods will review your correction and vote to approve or reject it.
comments
print report bad tab
guest
You may want to rate the tab now too:
select rating
Please do not post tabs as comments. Select "correction" instead!