Oops, an error
Loading. Please wait.

Drilled A Wire Through My Cheek Bass Tab

version 2
version 2

Whole song

1,130 views 1 this week
2 commentsread comments
1 2 3 4 5
2 more votes to show rating
add to favorites
launch autoscroll
font size
0
reset
guitar tuner
Autoscroll
slow
fast
+/-
esc
set tempo
stop
Help us to improve Ultimate-Guitar.com Take our survey!
×
Author
Intro
G-----------------|
D-----------------|
A--1~-1-1--1------|
E-----------4-2---|X2 (on second time end with 2~)

Verse (I try to stay...)
G-----------------|                             |------|
D-----------------|                             |------|
A--1~-1-1--1------|                             |------|
E-----------4-2---|X8(On the third time end with|--6\1-| then play the basic pattern 5 more times

Chorus (So drill it, so drill it...)
G-------------------------------------------|
D-------------------------------------------|
A--1~-1-1--1-1--4-3---1~--1-1--1-1---4/6~---|
E-------------------------------------------|X2

Verse 2 (Its proof to show...) 
G-----------------|
D-----------------|
A--1~-1-1--1------|
E-----------4-2---|X8 (Instead of the third, play “6\1”on the fourth)

Chorus (So drill it, so drill it...)                      (I didnt think ...)
G-------------------------------------------|             |-----|  |-----|
D-------------------------------------------|             |-----|  |-----|
A--1~-1-1--1-1--4-3---1~--1-1--1-1---4/6~---|             |-----|  |--1~-|
E-------------------------------------------|X2 (End with |--6~-|or|-----|

Verse 3 (When the hurt comes...) 
G-----------------|
D-----------------|
A--1~-1-1--1------|
E-----------4-2---|X8 (play “6\1”on the fourth again)

Chorus/Outro (So drill it, so drill it...)
G-------------------------------------------|
D-------------------------------------------|
A--1~-1-1--1-1--4-3---1~--1-1--1-1---4/6~---|
E-------------------------------------------|X7 (Play throughout the end of the song)

End
G----------|
D----------|
A-1~-------|
E----------| (Or a “6” on the E string)

Suggest correction
Give kudos to tab author, rate the tab!
1 2 3 4 5
comments
print report bad tab
2 comments total.
0 reply
DwizzleDizzle 30 Jun 21, 2009 01:38 PM

Ok everybody my bad, i ****ed up on this one its actualy a F not an F sharp, sorry everybody!

0 reply
[the]whorocks 90 Nov 02, 2009 03:12 PM

yeah that's the only thing I was gonna say..if you edit it to be an F instead then I'll give it a five.

guest
You may want to rate the tab now too:
select rating
Wanna post a correction for this tab? Suggest correction