Oops, an error
Loading. Please wait.

Foiled Tab

3,415 views 1 this week
no commentswrite comment
1 2 3 4 5
excellent!
x 3
add to favorites
launch autoscroll
font size
0
reset
how to read this tab
guitar tuner
Autoscroll
slow
fast
+/-
esc
set tempo
stop
Help us to improve Ultimate-Guitar.com Take our survey!
×
Author
Blue October
Foiled

Tracks:
1. You Make Me Smile
2. She's My Ride Home
3. Into The Ocean
4. What If We Could
5. Hate Me
6. Let It Go
7. Congratulations
8. Overweight
9. X Amount Of Words
10. Drilled A Wire Through My Cheek
11. Sound Of Pulling Heaven Down
12. Everlasting Friend
13. 18th Floor Balcony

Track 1 - You Make Me Smile
Intro:
E--------------------------------|
B-3/7~--7~--7h8p7~-5~-7-8-10-8-7-|
G--------------------------------|
D--------------------------------|
A--------------------------------|
E--------------------------------|

E--------------------------------|
B-7h8p7~--7~--7h8p7~-5~-7-8-10~~-|
G--------------------------------|
D--------------------------------|
A--------------------------------|
E--------------------------------|

Verse:
E-------------|
B-3~-3~-3~-2~-|
G-------------|
D-------------|
A-------------|
E-------------|

Pre-Chorus:
E-----------------|
B-----------------|
G-----------------|
D-7-7-7-7-7-7-7-7-|
A-7-7-7-7-7-7-7-7-|
E-5-5-5-5-5-5-5-5-|

Chorus:
E-----------------------------------------|
B-----------------------------------------|
G-----------------------------------------|
D-1212121212121212999999994444444477777777
A-1212121212121212999999994444444477777777
E-1010101010101010777777772222222225555555

Intro

Verse 2:
E-------------------------|
B-3~-3~-2~-5~-3~-3~-2~-5~-|
G-------------------------|
D-------------------------|
A-------------------------|
E-------------------------|

Pre-Chorus:
D-12~--9~--4~--7~-|
A-12~--9~--4~--7~-|
E-10~--7~--2~--5~-|
D-----------------|
A-----------------|
E-----------------|

Break:
E---9--10--9--12-|
B-10-10--10-10---|
G----------------|
D----------------|
A----------------|
E----------------|
3x then

E---9--10--9--10-|
B-10-10--10-10---|
G----------------|
D----------------|
A----------------|
E----------------|

E---9--10--9--12-|
B-10-10--10-10---|
G----------------|
D----------------|
A----------------|
E----------------|
3x then

E---9--10--12--14-|
B-10-10--10--10---|
G-----------------|
D-----------------|
A-----------------|
E-----------------|

Chorus

Outro: over chorus chords
E----------------------------------|
B-3-2~-2h3~-3-2~-2h3~-3-2~-2h3~-5~-|
G----------------------------------|
D----------------------------------|
A----------------------------------|
E----------------------------------|


Track 2 - She's My Ride Home
E------------------------------------------------------|
B-------------8----8----8----8-8--6---6----5---5---5-5-|
G------------------------------------------------------|
D------------------------------------------------------|
A-------10-10---10---10---10--------8---8----7---7-----|
E------------------------------------------------------|

Verse:
E-------|
B-1---1-|
G-0---2-|
D-2---2-|
A-3---0-|
E-------|


Chorus:
E-------|
B-1---1-|
G-2---0-|
D-3---2-|
A-3---3-|
E-------|

Ha Ha Ha Ha
E----------------|
B--8---6---5---3-|
G--x---x---x---x-|
D--x---x---x---x-|
A-10---8---7---5-|
E----------------|

Intro

Verse

Chorus

Verse

Chorus to the end


Track 3 - Into The Ocean
Verse:
E-----------------------------|
B-----------------------------|
G-----------------------------|
D-0-2~~~---0------------------|
A------------3~~~------0------|
E------------------------3~~~-|

Chorus:
E-0~--0~--1~--0~-|
B-1~--1~--1~--1~-|
G-0~--2~--2~--0~-|
D-2~--2~--3~--2~-|
A-3~--0~--3~--3~-|
E---------1~-----|

Break: Now waking to the sun...
E----------------------------|
B----------------------------|
G----------------------------|
D-0-2~~~---------------------|
A---------------------0------|
E-----------------------3~~~-|

Outro: Into space...
E--------------------|
B--------------------|
G--------------------|
D-0------2~-----2~---|
A---3~~-3---0-----3~-|
E------------3~------|


Track 4 - What If We Could
Verse:
E----------------------------------|
B----------------------------------|
G-----------------5555555555555555-|
D-77777777777777775555555555555555
A-77777777777777773333333333333333
E-5555555555555555----------------

E---------------------------------|
B---------------------------------|
G---------------------------------|
D-22222222222222227777777777777777
A-22222222222222227777777777777777
E-00000000000000005555555555555555

Chorus:
E---------------------------------|
B---------------------------------|
G---------77777777----------------|
D-77777777777777775555555522222222
A-77777777555555555555555522222222
E-55555555--------3333333300000000

Verse

Chorus

Break:
E------------------------------------|
B------------------------------------|
G-7~--5~----7~--5~--7~--5~-4~-7~--4~-|
D-7~--5~-5~-7~--5~--x---x--x--x---x--|
A-5~--3~-5~-5~--3~--5~--3~-2~-5~--2~-|
E--------3~--------------------------|

Chorus

Outro:
E---------------------------------------|
B---------------------------------------|
G-9/10/9-7~-----------9/10/9-9~--7/9-9~-|
D-x/-x/x-x--3x then---x/-x/x-x---x/x-x--|
A-7/-8/7-5~-----------7/-8/7-7~--5/7-7~-|
E---------------------------------------|


Track 5 - Hate Me
Verse:
E------------|
B-3--0--1--3-|
G-0--0--0--0-|
D-0--2--2--4-|
A-2--2--3--5-|
E-3--0-------|

Chorus:
E------------|
B-3--0--1--3-|
G-0--0--0--0-|
D-0--2--2--4-|
A-2--2--3--5-|
E-3--0-------|

Verse

Chorus

Bridge:
E------------|
B-1--3--3--0-|
G-0--0--0--0-|
D-2--4--0--2-|
A-3--5--2--2-|
E-------3--0-|

Chorus


Track 6 - Let It Go
Intro:
E-------------------------------|
B-------------------------------|
G----554-4-24h5p4-2-0---5-7-7h9-|
D---------------------3---------|
A--0----------------------------|
E-------------------------------|


Verse:
E----------------------------------------|
B----------------------------------------|
G---5------10----5-----5---5----10----5--|
D--5-5---10--10-5-5---5-5-5-5-10--10-5-5-|
A-3---3-8------3-----3---3---8------3----|
E----------------------------------------|


Chorus:
E-------------------------------------------------|
B-------------------------------------------------|
G---2----10----5------2----10------5555-5--5555-5-|
D--2-2-10--10-5-5----2-2-10--10----3333-5--3333-5-|
A-0---8------3---3--0---8------3--------3-------3-|
E-------------------------------------------------|


Break:
E------------------------|
B------------------------|
G--555---2----10-----5---|
D--555--2-2-10--10--5-5--|
A------0---8-------3---3-|
E------------------------|

Verse

Chorus

Break 2:
E-----|------------|--------|--|
B-----|------------|--------|--|
G-555-|---2----10--|--------|--|
D-555-|--2-2-10--10|---32320|--| 8 times
A-----|-0---8------|3-------|3~|
E-----|------------|--------|--|

Outro:
E------------------------|
B------------------------|
G-5555-5--5555-5--5555-5-|
D-3333-5--3333-5--3333-5-|
A------3-------3-------3-|
E------------------------|


Track 7 - Congratulations
Intro:
E---------------------------------|
B--------------9------------------|
G---9-8---9-8---------9-8-------6-|
D----------------9--------9---7---|
A-7-----7-----------7-------0-----|
E---------------------------------|

Verse:
E---------------------------------------------------------------------|
B--------------------------------------9------------5-----------------|
G----9-8---9-8---9-8----6----9-8---9-8-----9-8-----6------6-------8---|
D-------------------9--7----------------9------9--7---------7------9--|
A--7-----7-----7------0----7-----7-------7-------0-------0----0-----9-|
E---------------------------------------------------------------7-----|

Chorus:
E---------------|
B---------------|
G-9---8---6---6-|
D-9---9---7---7-|
A-7---9---7---7-|
E-7---7---5---5-|

Verse

Chorus

Outro:
E-------------------|
B-----------------9-|
G-9---8---9-------9-|
D-9---9---10--12--9-|
A-7---9---10--12--7-|
E-7---7---8---10--7-|


Track 8 - Overweight
From Start to "But are we scared":
E-----1-1-11-11-1-11-0-0-0-0-00-00-0-00-|
B-----1-1-11-11-1-11-1-1-1-1-11-11-1-11-|
G-----2-2-22-22-2-22-0-0-0-0-00-00-0-00-|
D-3-3-3-3-33-33-3-33-2-2-2-2-22-22-2-22-|
A-3-3-3-3-33-33-3-33-3-3-3-3-33-33-3-33-|
E-1-1-1-1-11-11-1-11--------------------|

But Are We Scared: same strumming pattern
           G
But are we scared to take the ride?
   F                F
Or dare to look inside?
             C
I'm floating farther away
             Am
I'm floating farther away
             F            G               C
I'm floating farther away   I'm letting go
C
I want to learn to walk with others as an equal
I want to treat the ones who love me with respect
          Am
I want to tell the world I'll give them all a piggyback
And try to take away my negative effect
          F
I want to kiss a girl and know I'll never lie again
          G
I want to call my dad and tell him that I care
          C
I want to let my brother know
He saved my life a thousand times
Throughout the years he's been my friend
Who's always there


Track 9 - X Amount Of Words
Chorus:
E---------------------------------|
B---------------------------------|
G-12121212121212121212121212121212
D--x-x-x-x-x-x-x-x-x-x-x-x-x-x-x-x
A-10101010101010101010101010101010
E---------------------------------
2x then

E------------------------------|
B------------------------------|
G-17-1717-1515-1515-1515--1515-|
D--x--x-x--x-x--x-x--x-x---x-x-|
A-15-1515-1313-1313-1313--1313-|
E------------------------------|

Break: very faint during the Oh's from 1:50 to 2:25
E-----------------|
B-----------------|
G-15-12~~~---8~~~-|
D-----------------|
A-----------------|
E-----------------|

Verse after Break:
E--------------|
B--------------|
G-12~~~---8~~~-|
D--------------|
A--------------|
E--------------|


Track 10 - Drilled A Wire Through My Cheek
Verse 1: bass with a little guitar part
E----------|
B-----4-2~-|
G----5-----|
D-3h5------|
A----------|
E----------|

Chorus:
E----------------------------|
B----------------------------|
G----------------------18-17-|
D-8~-x-xx8~-x-xx8~-x-xx-x--x-|
A-8~-x-xx8~-x-xx8~-x-xx16-15-|
E-6~-x-xx6~-x-xx6~-x-xx------|

E----------------------------|
B----------------------------|
G----------------------18-20-|
D-8~-x-xx8~-x-xx8~-x-xx-x--x-|
A-8~-x-xx8~-x-xx8~-x-xx16-18-|
E-6~-x-xx6~-x-xx6~-x-xx------|

Verse 2: listen when to play
E------------------------------|
B-14-13-11~-----4-2~-14-13-11~-|
G--------------5---------------|
D-----------3h5----------------|
A------------------------------|
E------------------------------|

E--------------------|
B-14-13-11~-----4-2~-|
G--------------5-----|
D-----------3h5------|
A--------------------|
E--------------------|

Verse 3: listen when to play
E-----------------------------|
B-----4-2~-----4-2~-14-13-11~-|
G----5--------5---------------|
D-3h5------3h5----------------|
A-----------------------------|
E-----------------------------|

Order:
Verse 1--1x
Chorus---2x
Verse 2--1x
Chorus---2x
Verse 3--1x
Chorus---6x


Track 11 - Sound Of Pulling Heaven Down
Intro: each notes twice. last 355 is once
E---------------------------------|
B---------------------------------|
G-5-5-5-5-5-5-5-5-----------------|
D-5-5-5-5-5-5-5-5-2-2-2-2-2-2-2-2-|
A-3-3-3-3-3-3-3-3-2-2-2-2-2-2-2-2-|
E-----------------0-0-0-0-0-0-0-0-|

E-------------------------------------|
B-------------------------------------|
G-------------------------------4-4-4-|
D-3-3-3-3-3-3-3-3-5-5-5-5-5-5-5-4-4-4-|
A-3-3-3-3-3-3-3-3-5-5-5-5-5-5-5-2-2-2-|
E-1-1-1-1-1-1-1-1-3-3-3-3-3-3-3-------|

Verse:
E---------------------------------|
B---------------------------------|
G-5-5-5-5-5-5-5-5-----------------|
D-5-5-5-5-5-5-5-5-2-2-2-2-2-2-2-2-|
A-3-3-3-3-3-3-3-3-2-2-2-2-2-2-2-2-|
E-----------------0-0-0-0-0-0-0-0-|

E---------------------------------|
B---------------------------------|
G---------------------------------|
D-3-3-3-3-3-3-3-3-5-5-5-5-5-5-5-5-|
A-3-3-3-3-3-3-3-3-5-5-5-5-5-5-5-5-|
E-1-1-1-1-1-1-1-1-3-3-3-3-3-3-3-3-|

Chorus:
E---------------------------------|
B---------------------------------|
G-2-2-2---4--4-4------------------|
D-3-3-3---5--5-5---7-7-7---7--7-7-|
A-3-3-3---5--5-5---7-7-7---7--7-7-|
E-1-1-1---3--3-3---5-5-5---5--5-5-|
twice then

E---------------------------------|
B---------------------------------|
G-2-2-2---4--4-4---0-0-0---2--2-2-|
D-3-3-3---5--5-5---2-2-2---3--3-3-|
A-3-3-3---5--5-5---2-2-2---3--3-3-|
E-1-1-1---3--3-3---0-0-0---1--1-1-|

E--------------------------------------|
B--------------------------------------|
G-2-2-2---2--2-2---4-4-4---4--4-4---5~-|
D-3-3-3---3--3-3---5-5-5---5--5-5---5~-|
A-3-3-3---3--3-3---5-5-5---5--5-5---3~-|
E-1-1-1---1--1-1---3-3-3---3--3-3------|

Verse

Chorus

Break: palm muted
E---------------------------------|
B---------------------------------|
G---------------------------------|
D-3-3-3-3-5-5-5-5-7-7-7-7-7-7-7-7-|
A-3-3-3-3-5-5-5-5-7-7-7-7-7-7-7-7-|
E-1-1-1-1-3-3-3-3-5-5-5-5-5-5-5-5-|
twice then

E---------------------------------|
B---------------------------------|
G---------------------------------|
D-3-3-3-3-5-5-5-5-2-2-2-2-3-3-3-3-|
A-3-3-3-3-5-5-5-5-2-2-2-2-3-3-3-3-|
E-1-1-1-1-3-3-3-3-0-0-0-0-1-1-1-1-|

E---------------------------------|
B---------------------------------|
G---------------------------------|
D-3-3-3-3-3-3-3-3-5-5-5-5-5-5-5-5-|
A-3-3-3-3-3-3-3-3-5-5-5-5-5-5-5-5-|
E-1-1-1-1-1-1-1-1-3-3-3-3-3-3-3-3-|

Chorus - twice

Outro:
E---------------------|
B---------------------|
G-4-4-4---4--4-4---2~-|
D-5-5-5---5--5-5---2~-|
A-5-5-5---5--5-5---0~-|
E-3-3-3---3--3-3------|


Track 12 - Everlasting Friend
Verse:
E-----------|
B----3-1-0~-|
G---2-------|
D--2--------|
A-0---------|
E-----------|

Chorus:
E-----------------------|
B-----------------------|
G-19-17-16--------------|
D----------16-17-19-17~-|
A-----------------------|
E-----------------------|

Break:
E-0~~~~~---0~~~~~-|
B--1~~~~----1~~~~-|
G---0~~~-----2~~~-|
D----2~~------2~~-|
A-----3~-------0~-|
E-----------------|


Track 13 - 18th Floor Balcony --- capo 2
Intro/Verse:
E--------------------------------------------------------------|
B-------3----------------3--------------3--------------1-------|
G-----0---0---0--------0---0---0------0---0---0------0---0---0-|
D---0-------0--------0-------0------0-------0------2-------2---|
A--------------------------------3---------------0-------------|
E-3---------------0--------------------------------------------|

On the 2nd play through:
e-------------------------------|
B-------1--------------1--------|
G-----0---0---0------0----0---0-|
D---2-------2------2--------2---|
A-0--------------0--------------|
E-------------------------------|

Chorus:
E-------------------------------------------------------------|
B-------3---------------3--------------1--------------1-------|
G-----0---0---0-------0---0---0------0---0---0------0---0---0-|
D---0-------0-------0-------0------2-------2------2-------2---|
A-3---------------2--------------0--------------0-------------|
E-------------------------------------------------------------|

After 2nd Chorus:
E-----------------------2---------------3--------------3-------|
B--------3-----------------------------------------------------|
G------0---0---0------0---0---0-------0---0---0------0---0---0-|
D----0-------0------0-------0-------0-------0------0-------0---|
A-----------------2---------------3--------------3-------------|
E--3-----------------------------------------------------------|

Violin Solo = Verse

Chorus

Verse


Questions?
Email at cory.roesch@yahoo.com
Suggest correction
What's this?
You can suggest a correction to this tab. Community and Mods will review your correction and vote to approve or reject it.
comments
We did not receive enough feedback on this tab! Please rate:
print report bad tab
1 2 3 4 5
guest
You may want to rate the tab now too:
select rating
Please do not post tabs as comments. Select "correction" instead!