Oops, an error
Loading. Please wait.

Graceful Dancing Tab

2,348 views 1 this week
no commentswrite comment
1 2 3 4 5
please rate
add to favorites
launch autoscroll
font size
0
reset
how to read this tab
guitar tuner
Autoscroll
slow
fast
+/-
esc
set tempo
stop
Help us to improve Ultimate-Guitar.com Take our survey!
×
Author
Blue October
Graceful Dancing
Approaching Normal

Intro:
E--------------------------|
B----2-----2-----2-----2---|
G---2-2---2-2---1-1---1-1--|
D--2---2-2---2-2---2-2---2-|
A-0-----0-----0-----0------|
E--------------------------|

E----------------------|
B----3-----3------3----|
G---4-4---4-4---4---4--|
D--4---4-4---4---2-2-2~|
A-2-----2--------------|
E--------------0-------|

Verse:
E--------------------------|
B----2-----2-----2-----2---|
G---2-2---2-2---1-1---1-1--|
D--2---2-2---2-2---2-2---2-|
A-0-----0-----0-----0------|
E--------------------------|

E---------------------------|
B----3-----3------3-----3---|
G---4-4---4-4---4--4--4--4--|
D--4---4-4---4---2--2--2--2-|
A-2-----2-------------------|
E--------------0-----0------|


Chorus:
E--------------------------|
B----3-----3-----2-----2---|
G---4-4---4-4---2-2---1-1--|
D--4---4-4---4-2---2-2---2-|
A-2-----2-----0-----0------|
E--------------------------|
3x then


E----------------------|
B----3-----3------3----|
G---4-4---4-4---4---4--|
D--4---4-4---4---2-2-2~|
A-2-----2--------------|
E--------------0-------|

Outro: repeat as necessary
E--------|
B----2---|
G---2-2--|
D--2---2-|
A-0------|
E--------|

Order:
Intro 1x
Verse 2x
Chorus 1x
Verse 2x
Chorus 1x
Verse 2x
Chorus 1x
Outro

Questions?
Email at cory.roesch@yahoo.com
Suggest correction
Give kudos to tab author, rate the tab!
1 2 3 4 5
comments
print report bad tab
guest
You may want to rate the tab now too:
select rating
Please do not post tabs as comments. Select "correction" instead!