Oops, an error
Loading. Please wait.

Hate Me Bass Tab

version 1
version 1

Whole song

Interactive

5,022 views 6 this week
no commentswrite comment
1 2 3 4 5
x 4
add to favorites
launch autoscroll
font size
0
reset
guitar tuner
Autoscroll
slow
fast
+/-
esc
set tempo
stop
Help us to improve Ultimate-Guitar.com Take our survey!
×
Author
Difficulty
novice
Artist: Blue October
Album: Foiled
Song: Hate Me

This is the first tab I have ever done so,  tell me if you find any mistakes!

Verse
|-------------------------------------------|
|--55~--55~--22~--22~------------00~--00~---|    x2
|----------------------33~--33~-------------|
|-------------------------------------------|

Chorus
|-----------------------------------------------|
|--55~--55~--5-4-22~--22~-------00~--55~--55~---|     x1
|--------------------------33~------------------|
|-----------------------------------------------|

Verse
|-------------------------------------------|
|--55~--55~--22~--22~------------00~--00~---|    x2
|----------------------33~--33~-------------|
|-------------------------------------------|

Pre-Chorus
|-----------------------------------------------|
|--55~--55~--5-4-22~--22~-------00~--33~--55~---|    x1
|--------------------------33~------------------|
|-----------------------------------------------|

Chorus
|-----------------------------------------------|
|--55~--55~--5-4-22~--22~-------00~--55~--55~---|    x1
|--------------------------33~------------------|
|-----------------------------------------------|

Bridge
|------------------------| |------------|
|-------00~--55~--33~----| |------00~---|    x1
|--33~-------------------| |-33~--------|
|------------------------| |------------|

Pre-Chorus
|----------------------------------------------|
|--55~--55~--5-4-22~--22~-------00~--33~--55~--|    x1
|--------------------------33~-----------------|
|----------------------------------------------|

Chorus
|-----------------------------------------------|
|--55~--55~--5-4-22~--22~-------00~--55~--55~---|    x1
|--------------------------33~------------------|
|-----------------------------------------------|

Outro
|--0~-----|
|---------|    x1
|---------|
|---------|


Well that's it...I hope you liked it, if you didn't that's ok, this is my first one!
PLEASE RATE IT!!! :D



Suggest correction
comments
print report bad tab
guest
You may want to rate the tab now too:
select rating
Wanna post a correction for this tab? Suggest correction