Oops, an error
Loading. Please wait.

Hate Me Bass Tab

version 2
version 2

Whole song

Interactive

1,105 views 3 this week
1 commentread comment
1 2 3 4 5
please rate
add to favorites
launch autoscroll
font size
0
reset
guitar tuner
Tab Pro tools
  • play this tab
  • loop segment
  • change instrument
  • show fretboard
  • metronome
×
Best way to learn
"Hate Me"
Autoscroll
slow
fast
+/-
esc
set tempo
stop
Contributor
-------------------------------------------------------------------------------
			     HATE ME – Blue October
-------------------------------------------------------------------------------
Tabbed By : xxBagleyxx
e-mail: xxbagleyxx@gmail.com
Tuning: (E A D G) Standard Tuning

Note To The Reader:
I realize there are 3 other bass tabs up, but I found that they are missing out  certain
and they are mostly in the wrong octave.  If you listen to the recording, you'll hear
the bass is actually playing LOW G and E (If I'm going crazy let me know). (I think he 
might drop tune it, I thought I heard him play a low D in the bridge).
AND! As a bonus, I give you the violin solo in the outro! (...because most bands don't
a violinist, our band just gives it to the bass player! It's always fun to spice up a
part with stuff like that).
I’m almost 100% sure that this is correct, I’ve listened 100 times!!  The others are
but are missing a few things!

Verse (1st Time): “I have to block out thoughts of you” / “I’m sober now for 3 whole months”
G|--------|-------|-------|----------|------|----------|-------|-----|
D|--------|-------|-------|----------|.-----|-.--------|.------|-.---|
A|--.-----|-.-----|.------|-.-------7/3-3~--|-3-3~----3/0-0~---|-0-0~|
E|--3-3---|-3-3—-3/0-0~---|-0-0---0--|------|----------|-------|-----|

All Other Times: “There’s a burning in my pride...” / “You never doubted...”
G|--------|--------|-------|-------|-------|---------|----2~-|----2~-|
D|--------|--------|----2~-|-------|.------|-.-------|.------|.------|
A|-.------|-.------|.------|.-----7/3—3~---|-3—3~---3/0-0~---|0-0~---|
E|-3-3~---|-3—3~--3/0-0~---|0-0~---|-------|---------|-------|-------|

Chorus: “Hate Me Today...”
G|--------|--------------|----------|------------------|
D|--------|--------------|-----2~---|------2~-----2-0--|
A|-.------|--------------|-.--------|-.----------------|
E|-3-3~---|-3-3-3-0-3--2-|-0-0~-----|-0-0~----0~-------|

G|---------|-.-------|--------|-------------|
D|-.-------|-0-0~----|--------|-----2---2-0-|
A|-3-3~----|---------|-.------|-------------|
E|---------|---------|-0-0~---|-0-0---0-----|

G|--------|--------------|----------|------------------|
D|--------|--------------|-----2~---|------2~-----2-0--|
A|-.------|--------------|-.--------|-.----------------|
E|-3-3~---|-3-3-3-0-3--2-|-0-0~-----|-0-0~----0~-------|

G|---------|-.-------|--------|-------------|
D|-.-------|-0-0~----|--------|-------------|
A|-3-3~----|---------|-.------|-------------|
E|---------|---------|-3-3~---|-3-3~--------|


Bridge: “And with a sad heart I say bye to you and wave...”
G|----------|----------|----------|----------|
D|----------|-00000000-|----------|----------|
A|-00000000-|----------|----------|----------|
E|----------|----------|-33333333-|-00000000-| x2

G|----------|----------|----------------|----------|
D|----------|-00000000-|-----------0---0|----------|
A|-00000000-|----------|----------------|----------|
E|----------|----------|-333-0h2h3---2--|-00000000-|


“And then she whispered how could you do this to me...”
G|----------|------------|
D|----------|-0~---------|
A|-00000000-|------------|
E|----------|------------|

If you don’t want to play the violin solo, the outro is just the chorus with a minor
on the last time he says: “For You” As noted below the violin solo.

And, as I promised, the violin solo:
G|-0~-(let ring)--|----------------|---------|---------|---------|
D|----12/9\14/12~-|--------12/7\9~-|-10~-----|-12~-----|-12~-----|
A|----------------|----------------|---------|---------|---------|
E|----------------|-0~-------------|-8~------|-10~-----|-0~------|
2nd Time:
G|-0~-(let ring)--|----------------|---------|---------|---------|
D|----12/9\14/12~-|--------12/7\9~-|-10~-----|-12~-----|---------|
A|----------------|----------------|---------|---------|---------|
E|----------------|-0~-------------|-8~------|-10~-----|-3~------|

OUTRO: LAST TIME
             Gradual slide v
G|--------|------9h11p9----|-------|--------|----------|
D|--------|-------------9—7/2------|--------|----------|
A|--------|----------------|-3~----|-0~-----|----------|
E|-3~-----|-0~-------------|-------|--------|-3~-------|
               \____v_____/
  (This fill is hard to hear, listen carefully for the timing)

And the open “A” is not a typo, he DOES change it at the end.

| /  slide up
| \  slide down
| h  hammer-on
| p  pull-off
| ~  Legato Note (Long Note)
| +  harmonic
| x  Mute note
| .  Staccato (Short note)

EMAIL ME IF YOU HAVE ANY QUESTIONS PLEASE! I LOVE FEEDBACK!

(Note: ALL VERSES ARE PLAYED THE SAME ON BASS, 1st Time is just the first pass through
verse)
comments
We did not receive enough feedback on this tab! Please rate:
print report bad tab
1 2 3 4 5
1 comment total.
0 reply
Ryuzaki_13 wrote on September 8 2012, 06:38 pm

You got it dead on my friend. No offense to the others but they are lacking on several parts.

I want to post or [tab]
guest
You may want to rate the tab now too:
select rating
Please do not post tabs as comments. Select "correction" instead!