Oops, an error
Loading. Please wait.

Hate Me Tab

version 2
version 2

Whole song

Interactive

6,183 views 1 this week
4 commentsread comments
1 2 3 4 5
x 3
add to favorites
launch autoscroll
font size
0
reset
how to read this tab
guitar tuner
Autoscroll
slow
fast
+/-
esc
set tempo
stop
Help us to improve Ultimate-Guitar.com Take our survey!
×
Author
Difficulty
novice
-------------------------------------------------------------------------------
                            HATE ME - Blue October
-------------------------------------------------------------------------------
Tabbed by: Eric H
Email: samurissword@gmail.com

Tuning: Standard

The guitar starts about half-way when the mother is talking. It's extremely silent,
have to turn the volume up a bit if you can't hear it.

I've put everything in order: Verse 1, Chorus, Verse 2, Chorus, Bridge, Chorus. No need
scroll back up.

It's my first tab, and I do take critizism well, so don't hold back.

GUITAR 1: Justin
GUITAR 2: C.B.

Key:
s - strum
~ - let it ring

INTRO/VERSE 1:

GUITAR 1:
Simple strumming, listen to the song and you'll be able to pick it up.
e|------3--------0--------0--------0|
A|------2--------2--------3--------0|
D|------0--------2--------2--------0|
G|------0--------0--------0--------2|
B|------3--------0--------1--------3|
E|------0--------0--------0--------0|

GUITAR 2:
Listen to the song to find the place to pick.
e|---------------------------------------------------|
A|---------------------------------------------------|
D|---------------------------------------------------|
G|---------------------------------------------------|
B|---------------------------------------------------|
E|------3---7------7----12------12----8------12----8-|

Verse 1 Lyrics:
I have to block out thoughts of you so I don't lose my head
They're crawling like a cochroack leaving leaving babys in my bed
Dropping little reels of tape
To remind me that I'm along
Playing movies in my head that make a porno feel like home
And there's a burning in my pride
A nervous bleeding in my brain
An ounce of pieces, all I want from you
Will you never call again?
And will you never say that you love me
Just to put it in my face?
And will you never try to reach me
It is I you wanna...


CHORUS:

GUITAR 1:
Chords 3 and 4 switch faster than normal. Listen to the song.
e|-----3--------0--------0--------0--------0|
A|-----2--------2--------3--------0--------2|
D|-----0--------2--------2--------0--------2|
G|-----0--------0--------0--------2--------0|
B|-----3--------0--------1--------3--------0|
E|-----0--------0--------0--------0--------0|

GUITAR 2:
Repeat as much as nessecary.
e|----------------|
A|----------------|
D|----------------|
G|----------------|
B|----------------|
E|------3---5---7-|

Chorus Lyrics:
Hate me today,
Hate me tomarrow
Hate me for all the things I didn't do for you
Hate me in ways
Yeah, ways hard to swallow
Hate me so you can finally
See what's good for you.

VERSE 2:

GUITAR 1:
During the first and second line, the strumming gets a bit softer. It goes back to
afterwards.
e|------3--------0--------0--------0|
A|------2--------2--------3--------0|
D|------0--------2--------2--------0|
G|------0--------0--------0--------2|
B|------3--------0--------1--------3|
E|------0--------0--------0--------0|

GUITAR 2:
After the first two lines are said, the first two strings are plucked. Repeat as much as nessecary.
e|---------------------------------------------|
A|---------------------------------------------|
D|---------------------------------------------|
G|---------------------------------------------|
B|-0----------0-----0---0--------------0-----0-|
E|---0------0------0-----0-------2-3s---0-----0|

Verse 1 Lyrics:
I'm sober now for three whole months
That's one accomplishment that ya helped me with
The one thing that always tore us apart is the one thing I won't touch again
In a sick way
I wanna thank you for holding my head up, late at night
While I was busy waging wars on myself, you were trying to stop the fight
You never doubted my warped opinions on things like suicidal hate
You made me compliment myself when it was way too hard to take
So I drive so fucking far away that I never cross your mind
And do whatever it takes to leave me behind

CHORUS:
e|-----3--------0--------0--------0--------0|
A|-----2--------2--------3--------0--------2|
D|-----0--------2--------2--------0--------2|
G|-----0--------0--------0--------2--------0|
B|-----3--------0--------1--------3--------0|
E|-----0--------0--------0--------0--------0|

Chorus Lyrics:
Hate me today,
Hate me tomarrow
Hate me for all the things I didn't do for you
Hate me in ways
Yeah, ways hard to swallow
Hate me so you can finally
See what's good for you.

BRIDGE:
It's almost like they went backwards with the chords.
e|--------0--------0--------3----0--------0|
A|--------3--------0--------2----0--------2|
D|--------2--------0--------0----0--------2|
G|--------0--------2--------0----2--------0|
B|--------1--------3--------3----3--------0|
E|--------0--------0--------0----0--------0|

GUITAR 2:
Repeat as nessecary. I'm sort of sure on this...Not entirely though.
e|---------------------------------------------------------|
A|---------------------------------------------------------|
D|---------------------------------------------------------|
G|---------------------------------------------------------|
B|-------------------3--------3-----------3------------3---|
E|---0----3---2-----------3------0---0---------3---0------0|

Bridge Lyrics:
And with a sad heart I saw bye to you and wave
Kicking shadows on the street for every mistake that I have made
And like a baby boy I never was a man
Til I saw your blue eyes cry, and I held your face in my hand
And then I fell down yelling "Make it go away!"
Just make her smile come back and shine
Just like it used to be
And then she whispered "How could you do this to me?"

CHORUS:

GUITAR 1:
e|-----3--------0--------0--------0--------0|
A|-----2--------2--------3--------0--------2|
D|-----0--------2--------2--------0--------2|
G|-----0--------0--------0--------2--------0|
B|-----3--------0--------1--------3--------0|
E|-----0--------0--------0--------0--------0|

GUITAR 2:
Silent. The violin kicks in.

Chorus Lyrics:
Hate me today,
Hate me tomarrow
Hate me for all the things I didn't do for you
Hate me in ways
Yeah, ways hard to swallow
Hate me so you can finally
See what's good for you.

And that's it. Leave comments, or PM me with any changes.
Suggest correction
Give kudos to tab author, rate the tab!
1 2 3 4 5
comments
print report bad tab
4 comments total. Showing first comments.
+1 reply
MyImmortal 20 Apr 24, 2007 07:10 PM

It sound good despite how confisung it is to read. Try to make it so the low E is on the bottom so it looks like this:
E---------------------
B----3----------------
G----0---0------------
D----0---2------------
A----2---2------------
E----3---0------------

It's so much easyer to read. Other than that is sounds very accurate. Good job.

0 reply
suffering 10 May 24, 2007 05:12 PM

lol its upside down

0 reply
RCH15 45 Apr 18, 2009 12:38 PM

It's upside down. Please fix it.

guest
You may want to rate the tab now too:
select rating
Wanna post a correction for this tab? Suggest correction