Oops, an error
Loading. Please wait.

Hate Me Bass Tab

version 3
version 3

Whole song

Interactive

2,550 views 1 this week
1 commentread comment
1 2 3 4 5
accurate
x 3
add to favorites
launch autoscroll
font size
0
reset
guitar tuner
Autoscroll
slow
fast
+/-
esc
set tempo
stop
Help us to improve Ultimate-Guitar.com Take our survey!
×
Song: Hate Me
Album: Foiled
Band: Blue October
Tabbed By: Masterbasser36

Note: This is not the order of play, this is how to play the parts, the order of play is at the bottom.

Verse 
G|------------------------------------------|
D|-55~--55~--33~--33~------------00~--00~---|
A|---------------------33~--33~-------------|
E|------------------------------------------|

Chorus 
G|---------------------------------------------|
D|-55~--55~--5-2-3~--33~-------00~--55~--55~---|
A|------------------------33~------------------|
E|---------------------------------------------|

Pre-Chorus
G|----------------------------------------------|
D|-55~--55~--5-2-33~--33~-------00~--33~--55~---|
A|-------------------------33~------------------|
E|----------------------------------------------|

Bridge     x3                  x1
G|----------------------||------------|
D|------00~--55~--33~---||------00~---|
A|-33~------------------||-33~--------|
E|----------------------||------------|

Outro
G|-0~---|
D|------|
A|------|
E|------|

Playing Order:

Verse      x2
Chorus     x1
Verse      x2
Pre-Chorus x1
Chorus     x1
Bridge     x1
Pre-Chorus x1
Chorus     x1
Outro      x1

That's it, please rate!
Comment if you have any questions or find any mistakes.
Suggest correction
Give kudos to tab author, rate the tab!
1 2 3 4 5
comments
print report bad tab
1 comment total.
0 reply
findingneema 50 wrote on February 23 2008, 10:10 pm

pretty wrong, F should be E, some other mistakes

guest
You may want to rate the tab now too:
select rating
Please do not post tabs as comments. Select "correction" instead!