Oops, an error
Loading. Please wait.

Hate Me Tab

version 3
version 3

Whole song

Interactive

8,658 views 15 this week
2 commentsread comments
1 2 3 4 5
excellent!
x 5
add to favorites
launch autoscroll
font size
0
reset
how to read this tab
guitar tuner
Tab Pro tools
  • play this tab
  • loop segment
  • change instrument
  • show fretboard
  • metronome
×
Best way to learn
"Hate Me"
Autoscroll
slow
fast
+/-
esc
set tempo
stop
Contributor
Song: Hate Me
Artist: Blue October

Transposed by Colton Wood

Email: ColtonWoed@aol.com
Email Changed 4/12/10

This song is a somewhat sad song, especially when the violins come in. I 
myself am not a fan of the lyrics (they make me feel depressed) but more of 
the tune of the song itself. I included three guitar parts. One and two are 
paired together while three is the chords at the end. Guitar one is tiny 
riffs played throughout the song (it's not the notes that is hard to tab it 
is the rhythm, but I can almost guarantee it is right) and guitar two is 
basically the chords in the chorus, so you may only find a second guitar in 
the chorus... but watch for it in other parts anyway. Alright, let's get 
started.

*Song Legend*
*************
/ Slide up to
\ Slide down to
h Hammer on to
p Pull off to
*************

Guitar 3: Acoustic, Standard tuning
Guitar 2: Electric with reverb, clean drive; Standard Tuning
Guitar 1: Electric with reverb, clean drive; Standard Tuning

THE FOLLOWING IS FOR GUITAR 1/2 ONLY... 3 COMES IN LATER

Intro: Neither guitar play

Verse: For first four lines, neither guitar play.

Starting line five: Guitar 1 only.

e|--------------------|
B|----12~-------------|
G|-12-----------------|
D|--------------------|
A|--------------------|
E|--------------------|
  ........There's a burning in my pride...

e|------12~-----------|
B|---12---------------|
G|--------------------|
D|--------------------|
A|--------------------|
E|--------------------|
  An ounce of peace is all I want for you...

e|-12-----------------|
B|----13~-------------|
G|--------------------|
D|--------------------|
A|--------------------|
E|--------------------|
  And will you never say that you loved me...

e|-12-----------------|
B|----12~-------------|
G|--------------------|
D|--------------------|
A|--------------------|
E|--------------------|
  ....And will you never try to reach me...

Chorus: Guitar 1 and 2 play seperate peices

e|--------------------|
B|-8-10-12-8~--10-12--|
G|--------------------|
D|--------------------|
A|--------------------|
E|--------------------|
1:today.......
2:
e|--------------------|
B|--------------------|
G|--------------------|
D|-5~-----------------|
A|-5~-----------------|
E|-3~-----------------|
  today.......

e|--------------------|
B|-8-10-12-8~--10-12--|
G|--------------------|
D|--------------------|
A|--------------------|
E|--------------------|
1:oooo..rrow..........
2:
e|--------------------|
B|--------------------|
G|--------------------|
D|-2~-----------------|
A|-2~-----------------|
E|-0~-----------------|
  oooo..rrow..........

e|--------------------|
B|-8-10-12~-----------|
G|--------------------|
D|--------------------|
A|--------------------|
E|--------------------|
1:All the things......
2:
e|--------------------|
B|--------------------|
G|-5~-----------------|
D|-5~-----------------|
A|-3~-----------------|
E|--------------------|
  All the things......

e|--------------------|
B|-7-10-12~-----------|
G|--------------------|
D|--------------------|
A|--------------------|
E|--------------------|
1:Didn't do...........
2:
e|--------------------|
B|--------------------|
G|-7~-----------------|
D|-7~-----------------|
A|-5~-----------------|
E|--------------------|
  Didn't do...........

e|--------------------|
B|--------8--8--8-----|
G|--------------------|
D|--------------------|
A|--------------------|
E|--------------------|
1:For you
2:
e|--------------------|
B|--------------------|
G|--------------------|
D|-2~-----------------|
A|-2~-----------------|
E|-0~-----------------|
  For you

e|------------|
B|-7--7--7--7-|
G|------------|
D|------------|
A|------------|
E|------------|
1:
2:
e|------------|
B|------------|
G|------------|
D|(2)~--------|
A|(2)~--------|
E|(0)~--------|

e|--------------------|
B|-8-10-12-8~--10-12--|
G|--------------------|
D|--------------------|
A|--------------------|
E|--------------------|
1:in ways.......
2:
e|--------------------|
B|--------------------|
G|--------------------|
D|-5~-----------------|
A|-5~-----------------|
E|-3~-----------------|
  in ways.......

e|--------------------|
B|-8-10-12-8~--10-12--|
G|--------------------|
D|--------------------|
A|--------------------|
E|--------------------|
1:Swall....oooo.......
2:
e|--------------------|
B|--------------------|
G|--------------------|
D|-2~-----------------|
A|-2~-----------------|
E|-0~-----------------|
  Swall....oooo.......

e|--------------------|
B|-8-10-12~-----------|
G|--------------------|
D|--------------------|
A|--------------------|
E|--------------------|
1:You can finally.....
2:
e|--------------------|
B|--------------------|
G|-5~-----------------|
D|-5~-----------------|
A|-3~-----------------|
E|--------------------|
  You can finally.....

e|--------------------|
B|-7-10-12~-----------|
G|--------------------|
D|--------------------|
A|--------------------|
E|--------------------|
1:See whats good......
2:
e|--------------------|
B|--------------------|
G|-7~-----------------|
D|-7~-----------------|
A|-5~-----------------|
E|--------------------|
  See whats good......

e|--------------------|
B|--------------------|
G|--------------------|
D|--------------------|
A|--------------------|
E|--------------------|
1:For you
2:
e|--------------------|
B|--------------------|
G|--------------------|
D|-2~-----------------|
A|-2~-----------------|
E|-0~-----------------|
  For you

e|------------|
B|------------|
G|------------|
D|------------|
A|------------|
E|------------|
1:
2:
e|------------|
B|------------|
G|------------|
D|(2)~--------|
A|(2)~--------|
E|(0)~--------|

Verse 2: starting Line 2, Guitar 1 only

e|------12~-----------|
B|---12---------------|
G|--------------------|
D|--------------------|
A|--------------------|
E|--------------------|
  ..........The one thing that always...

e|-12-----------------|
B|----13~-------------|
G|--------------------|
D|--------------------|
A|--------------------|
E|--------------------|
  .......In a sick way I want to thank you...

e|-------12-----------|
B|----------12~-------|
G|--------------------|
D|--------------------|
A|--------------------|
E|--------------------|
  While I was busy waging wars on myself...

e|--------------------|
B|----12~-------------|
G|-12-----------------|
D|--------------------|
A|--------------------|
E|--------------------|
  ........You never doubted my warped...

e|------12~-----------|
B|---12---------------|
G|--------------------|
D|--------------------|
A|--------------------|
E|--------------------|
  ..........You made me compliment...

e|-12-----------------|
B|----13~-------------|
G|--------------------|
D|--------------------|
A|--------------------|
E|--------------------|
  So I'll drive so f***in' far away...

e|-12-----------------|
B|----12~-------------|
G|--------------------|
D|--------------------|
A|--------------------|
E|--------------------|
 .... And do whatever it takes in your...

Chorus: Guitar 1 and 2 play seperate peices

e|--------------------|
B|-8-10-12-8~--10-12--|
G|--------------------|
D|--------------------|
A|--------------------|
E|--------------------|
1:today.......
2:
e|--------------------|
B|--------------------|
G|--------------------|
D|-5~-----------------|
A|-5~-----------------|
E|-3~-----------------|
  today.......

e|--------------------|
B|-8-10-12-8~--10-12--|
G|--------------------|
D|--------------------|
A|--------------------|
E|--------------------|
1:oooo..rrow..........
2:
e|--------------------|
B|--------------------|
G|--------------------|
D|-2~-----------------|
A|-2~-----------------|
E|-0~-----------------|
  oooo..rrow..........

e|--------------------|
B|-8-10-12~-----------|
G|--------------------|
D|--------------------|
A|--------------------|
E|--------------------|
1:All the things......
2:
e|--------------------|
B|--------------------|
G|-5~-----------------|
D|-5~-----------------|
A|-3~-----------------|
E|--------------------|
  All the things......

e|--------------------|
B|-7-10-12~-----------|
G|--------------------|
D|--------------------|
A|--------------------|
E|--------------------|
1:Didn't do...........
2:
e|--------------------|
B|--------------------|
G|-7~-----------------|
D|-7~-----------------|
A|-5~-----------------|
E|--------------------|
  Didn't do...........

e|--------------------|
B|--------8--8--8-----|
G|--------------------|
D|--------------------|
A|--------------------|
E|--------------------|
1:For you
2:
e|--------------------|
B|--------------------|
G|--------------------|
D|-2~-----------------|
A|-2~-----------------|
E|-0~-----------------|
  For you

e|------------|
B|-7--7--7--7-|
G|------------|
D|------------|
A|------------|
E|------------|
1:
2:
e|------------|
B|------------|
G|------------|
D|(2)~--------|
A|(2)~--------|
E|(0)~--------|

e|--------------------|
B|-8-10-12-8~--10-12--|
G|--------------------|
D|--------------------|
A|--------------------|
E|--------------------|
1:in ways.......
2:
e|--------------------|
B|--------------------|
G|--------------------|
D|-5~-----------------|
A|-5~-----------------|
E|-3~-----------------|
  in ways.......

e|--------------------|
B|-8-10-12-8~--10-12--|
G|--------------------|
D|--------------------|
A|--------------------|
E|--------------------|
1:Swall....oooo.......
2:
e|--------------------|
B|--------------------|
G|--------------------|
D|-2~-----------------|
A|-2~-----------------|
E|-0~-----------------|
  Swall....oooo.......

e|--------------------|
B|-8-10-12~-----------|
G|--------------------|
D|--------------------|
A|--------------------|
E|--------------------|
1:You can finally.....
2:
e|--------------------|
B|--------------------|
G|-5~-----------------|
D|-5~-----------------|
A|-3~-----------------| 
E|--------------------|
  You can finally.....

e|--------------------|
B|-7-10-12~-----------|
G|--------------------|
D|--------------------|
A|--------------------|
E|--------------------|
1:See whats good......
2:
e|--------------------|
B|--------------------|
G|-7~-----------------|
D|-7~-----------------|
A|-5~-----------------|
E|--------------------|
  See whats good......

e|--------------------|
B|--------------------|
G|--------------------|
D|--------------------|
A|--------------------|
E|--------------------|
1:For you
2:
e|--------------------|
B|--------------------|
G|--------------------|
D|-2~-----------------|
A|-2~-----------------|
E|-0~-----------------|
  For you

e|------------|
B|------------|
G|------------|
D|------------|
A|------------|
E|------------|
1:
2:
e|------------|
B|------------|
G|------------|
D|(2)~--------|
A|(2)~--------|
E|(0)~--------|

Bridge: For this part I chose to separate guitar 1 and guitar 2. Guitar two 
I will tab the power chords with the complete lyrics and easy to follow 
rhythm. Following that will be guitar one tabbed out how it always has been.

Here is a power chord reference:

   A5  D5  G5  E5  C5 F#7 (I don’t know the last ones name 
e|-----------------------| but I think F#7 is close... Well if you do
B|-----------------------| know its name post it on the comments and
G|-2---7-----------5-----| I will fix this! Giving you a shoutout.)
D|-2---7---5---2---5---5-|
A|-0---5---5---2---3---5-|
E|---------3---0-------2-|


Guitar 2:
          (A5)                            (D5)
And with a sad heart I say bye to you and wave
        (G5)                 (F#7)       (E5)
Kicking shadows on the street for every mistake that I had made
           (A5)                  (D5)
And like a baby boy I never was a man
        (G5)                        (F#7)      (E5)
Until I saw your blue eyes cry and I held your face in my hand
           (A5)                          (D5)                (G5)
And then I fell down yelling, Make it go away! just make a smile
                   (F#7)     (E5)
Come back and shine just like it used to be
            (A5)                              (A5)
And then she whispered, How can you do this to me?...

Now this is guitar 1 part of the bridge:
Let each one of these notes ring

e|-----------------|-----------------|-----------------|
B|------------5----|----------------8|-------7---------|
G|-----------------|-----------------|-----------------|
D|-----------------|-----------------|-----------------|
A|-----------------|-----------------|-----------------|
E|-----------------|-----------------|-----------------|
  And with a sad heart I say bye to you and wave.

e|-----------------|-----------------|-----------------|
B|------------8----|-----------------|-7------5--------|
G|-----------------|-----------------|-----------------|
D|-----------------|-----------------|-----------------|
A|-----------------|-----------------|-----------------|
E|-----------------|-----------------|-----------------|
  Kicking shadows on the street, for every mistake

e|-----------------|-----------------|-----------------|
B|-----------------|-----------5-----|---------8-------|
G|-----------------|-----------------|-----------------|
D|-----------------|-----------------|-----------------|
A|-----------------|-----------------|-----------------|
E|-----------------|-----------------|-----------------|
  That I had made. And like a baby boy I never was

e|-----------------|-----------------|-----------------|
B|---7------------8|-----------------|-----------7-----|
G|-----------------|-----------------|-----------------|
D|-----------------|-----------------|-----------------|
A|-----------------|-----------------|-----------------|
E|-----------------|-----------------|-----------------|
  A man, until I saw those blue eyes cry, and I held

e|-----------------|-----------------|-----------------|
B|-------5---------|----------------5|-----------------|
G|-----------------|-----------------|-----------------|
D|-----------------|-----------------|-----------------|
A|-----------------|-----------------|-----------------|
E|-----------------|-----------------|-----------------|
  Your face in my hand. And then I fell down yelling,

e|-----------------|-----------------|-----------------|
B|----------8-----7|----------------8|-----------------|
G|-----------------|-----------------|-----------------|
D|-----------------|-----------------|-----------------|
A|-----------------|-----------------|-----------------|
E|-----------------|-----------------|-----------------|
   Make it go away!  Just make a  smile come back and

e|-----------------|-----------------|-----------------|
B|--------7--------|5----------------|-----------------|
G|-----------------|-----------------|-----------------|
D|-----------------|-----------------|-----------------|
A|-----------------|-----------------|-----------------|
E|-----------------|-----------------|-----------------|
  Shine, just like it used to be..... And then she 

e|-----------------|-----------------|--5------5----\--|
B|----5------------|-----------------|-----------------|
G|-----------------|-----------------|-----------------|
D|-----------------|-----------------|-----------------|
A|-----------------|-----------------|-----------------|
E|-----------------|-----------------|-----------------|
  Whispered,         how could you do this to me?

Guitar 1 and 2 do not play for the remainder of the song. Only guitar 3

Well now that we are done with guitars 1 and 2 lets move on to the light   
guitar that makes a song sound smooth. Guitar 3.

Like I said earlier, this is the chord pattern to the song
*********************************************************************
Chords used in the song:

(G):------320003
(C):------X32010 
(Em):-----022000 
(D):------XX0232
(Dsus2):--XX0230

INTRO:

Hi Justin, This is your mother. It is 2:33 on Monday afternoon.

I was just calling to see how you were doing.
                                                                 (G)
You sounded really uptight last night, it made me a little nervous,
                                     
and a little... well it made me nervous,

but it sounded like you were nervous too.
(Em)
I just want to make sure you are really okay and
        (C)
wanted to see if you were checking in on your medication too.
                 (D)
You know I love ya and take care honey.

I know you're under a lot of pressure. See ya. Ba Bye!

VERSE:
(G)
I have to block out thoughts of you, so I don't lose my head
(Em)
They crawl in like a cockroach leaving babies in my bed
       (C)
Dropping little reels of tape, to remind me that I'm alone
       (D)
Playing movies in my head that make a porno feel like home
(G)
There's a burning in my pride, and a nervous bleeding in my brain
(Em)
An ounce of peace is all I want for you, will you never call again?
           (C)
And will you never say that you loved me, just to put it in my face?
            (D)
And will you never try to reach me, it is I that wanted space

CHORUS:
           (G)   
Hate me tod------------ay
           (Em)
Hate me tom----------or-row
          (C)               (D)           (E)
Hate me for all the things I didn't do for you
           (G)
Hate me in ways, 
             (Em)
yeah ways hard to swallow
           (C)            (D)               (G)
Hate me so you can finally see what's good for you

VERSE 2:
(G)
I'm sober now for 3 whole months, 
         (G)
it's one accomplishment that you helped me with
(Em)
The one thing that always tore us apart is the one thing I won't touch again
    (C)
In a sick way I want to thank you for holding my head up late at night
          (D)
While I was busy waging wars on myself, you were trying to stop the fight
(G)
You never doubted my warped opinions on things like suicidal hate
(Em)
You made me compliment myself when it was way too hard to take
    (C)
So I'll drive so f***in far away that I'll never cross your mind
(D)
And do whatever it takes in your heart to leave me behind

CHORUS:
           (G)   
Hate me tod------------ay
           (Em)
Hate me tom----------or-row
          (C)               (D)           (E)
Hate me for all the things I didn't do for you
           (G)
Hate me in ways, 
             (Em)
yeah ways hard to swallow
           (C)            (D)               (G)
Hate me so you can finally see what's good for you

BRIDGE:
           (C)                            (D)
And with a sad heart I say bye to you and wave
        (G)                   (D)       (Em)
Kicking shadows on the street for every mistake that I had made
           (C)             (G)   (D)
And like a baby boy I never was a man
        (G)                          (D)       (Em)
Until I saw your blue eyes cry and I held your face in my hand
           (C)                             (D)                (G)
And then I fell down yelling, Make it go away! just make a smile
                    (D)       (Em)
Come back and shine just like it used to be
             (C)                             (Dsus2)
And then she whispered, How can you do this to me?...

CHORUS:
          (G)
Hate me today
         (Em)
Hate me tomorrow
         (C)                 (D)          (Em)
Hate me for all the things I didn't do for you...
(G)
Hate me in ways,
                  (Em)
yeah ways hard to swallow
           (C)             (D)                  (G)
Hate me so you can finally see whats good for you.
   (Em)
For You...
   (C)
For You...
    (D)
For You...

Well thanks for taking the time to learn this song, eventually I might come 
back and do some bass tabbing so keep yourself updated = D

Oh and please drop me a comment or correction and please leave a rating! 
Thankyou.
comments
print report bad tab
2 comments total.
0 reply
xFASTxFINGERSx wrote on April 29 2010, 07:17 pm

tat was totally awesum!

0 reply
AwokenDEMON wrote on May 7 2010, 11:34 pm

I noticed you (Fast fingers) have commented on all my tabs... go view a different tab and stop crouding me! god

I want to post or [tab]
guest
You may want to rate the tab now too:
select rating
Please do not post tabs as comments. Select "correction" instead!