Oops, an error
Loading. Please wait.

Hate Me Bass Tab

version 4
version 4

Whole song

Interactive

1,174 views 1 this week
2 commentsread comments
1 2 3 4 5
please rate
add to favorites
launch autoscroll
font size
0
reset
guitar tuner
Autoscroll
slow
fast
+/-
esc
set tempo
stop
Help us to improve Ultimate-Guitar.com Take our survey!
×
Author
Difficulty
novice
This is how I play it...
Enjoy
Standard tuning E, A , D , G


Verse
G----------------------------------------------------------------------------------------
D---55~ ---55~ ------33~ ----33~ -----------------------00~ ---00~ ----------------------
A------------------------------------------33~ ----33~ ----------------------------------
E------------------------------------------------------------------------------------(x2)

Chorus #1
G----------------------------------------------------------------------------------------
D--55~ ---55~ --------5-4-33~ ----33~ ---------------00~ --------55~ ---55~--------------
A-------------------------------------------------33~ -----------------------------------
E------------------------------------------------------------------------------------(x1)

Verse
G----------------------------------------------------------------------------------------
D---55~ ---55~ ------33~ ----33~ -----------------------00~ ---00~ ----------------------
A------------------------------------------33~ ----33~ ----------------------------------
E------------------------------------------------------------------------------------(x2)

Chorus #2
G----------------------------------------------------------------------------------------
D--55~ ---55~ --------5-4-33~ ----33~ ---------------00~ --------33~ ----33~ ------------
A-------------------------------------------------33~ -----------------------------------
E------------------------------------------------------------------------------------(x1)

Chorus #1
G----------------------------------------------------------------------------------------
D--55~ ---55~ --------5-4-33~ ----33~ ---------------00~ --------55~ ---55~--------------
A-------------------------------------------------33~ -----------------------------------
E------------------------------------------------------------------------------------(x1)

Bridge #1
G-----------------------------------------------------------          G-----------------
D----------00~ --------55~ -----33~ ------------------------	      D------------00~ -
A-33~ ------------------------------------------------------          A----33~ ---------
E-----------------------------------------------------------(x3)      E--------------(x1)

Chorus #2
G----------------------------------------------------------------------------------------
D--55~ ---55~ --------5-4-33~ ----33~ ---------------00~ --------33~ ----33~ ------------
A-------------------------------------------------33~ -----------------------------------
E------------------------------------------------------------------------------------(x1)





Chorus #1
G----------------------------------------------------------------------------------------
D--55~ ---55~ --------5-4-33~ ----33~ ---------------00~ --------55~ ---55~ -------------
A------------------------------------------------33~ ------------------------------------
E------------------------------------------------------------------------------------(x1)


End on
G-------------------
D------5~ ----------
A-------------------
E-------------------

Suggest correction
What's this?
You can suggest a correction to this tab. Community and Mods will review your correction and vote to approve or reject it.
comments
We did not receive enough feedback on this tab! Please rate:
print report bad tab
1 2 3 4 5
2 comments total.
0 reply
brando.rhymer 13 wrote on November 12 2006, 06:06 am

i'm not sure but if you listen closely it sounds like there's a part missing out of the lick. for example you have it going 5-5~ but it sounds like there's another note in there hidden by the sustain. i can't hear it too well on my speakers but i can find out what note it is later.

0 reply
damonfinegan2 353 wrote on January 27 2016, 11:08 pm

is this the 6 or 4 minute version

guest
You may want to rate the tab now too:
select rating
Please do not post tabs as comments. Select "correction" instead!