Oops, an error
Loading. Please wait.

Into The Ocean Tab

12,220 views 9 this week
no commentswrite comment
1 2 3 4 5
x 4
add to favorites
launch autoscroll
font size
0
reset
how to read this tab
guitar tuner
Autoscroll
slow
fast
+/-
esc
set tempo
stop
Help us to improve Ultimate-Guitar.com Take our survey!
×
Author
Blue October
Into The Ocean
Foiled



Verse:
E|----------------------------------------------------------------------------------------|
B|----------------------------------------------------------------------------------------|
G|----------------------------------------------------------------------------------------|
D|--------------------------------------------0-------2----2------------------------------|
A|----------------------------------------------------------------------------------------|
E|----------------------------------------------------------------------------------------|
I'm just a normal boy that sank when I fell overboard. My ship would leave the country...
But I'd rather swim ashore. 

E|----------------------------------------------------------------------------------------|
B|----------------------------------------------------------------------------------------|
G|----------------------------------------------------------------------------------------|
D|-------------------------------------------------------------0--------------------------|
A|----------------------------------------------------------------------3----3------------|
E|----------------------------------------------------------------------------------------|
Without a life vest, I'd be stuck again. Wish I was much more masculine. Maybe then I could learn to swim...
Like (fourteen miles away). Now floating up and down, I spin, colliding into sound...

E|----------------------------------------------------------------------------------------|
B|----------------------------------------------------------------------------------------|
G|----------------------------------------------------------------------------------------|
D|----------------------------------------------------------------------------------------|
A|------------------------------------------------------0---------------------------------|
E|--------------------------------------------------------------3----3--------------------|
Like whales beneath me diving down. I'm sinking to the bottom of my everything that freaks me out.
The lighthouse gleam has just run out.

E|-------------------------------x-x-x-x-x-x-x-x-x-x-x-x-x-x-x-x--------------------------|
B|-------------------------------x-x-x-x-x-x-x-x-x-x-x-x-x-x-x-x--------------------------|
G|-------------------------------x-x-x-x-x-x-x-x-x-x-x-x-x-x-x-x--------------------------|
D|-------------------------------x-x-x-x-x-x-x-x-x-x-x-x-x-x-x-x--------------------------|
A|-------------------------------x-x-x-x-x-x-x-x-x-x-x-x-x-x-x-x--------------------------|
E|-------------------------------x-x-x-x-x-x-x-x-x-x-x-x-x-x-x-x--------------------------|
I'm cold as cold as cold can be...        be



Chorus:
E|----------------------------------------------------------------------------------------|
B|----------------------------------------------------------------------------------------|
G|-5--------------------------------------------------------------------------------------|
D|-5--------------------------------------------------------------------------------------|
A|-3--------------------------------------------------------------------------------------|
E|----------------------------------------------------------------------------------------|
     I want to swim away but don't know how. Sometimes it feels just like I'm falling in the ocean.

E|----------------------------------------------------------------------------------------|
B|----------------------------------------------------------------------------------------|
G|-2--------------------------------------------------------------------------------------|
D|-2--------------------------------------------------------------------------------------|
A|-0--------------------------------------------------------------------------------------|
E|----------------------------------------------------------------------------------------|
     Let the waves up and take me down. Let the hurricane set in motion. Yeah.

E|----------------------------------------------------------------------------------------|
B|----------------------------------------------------------------------------------------|
G|-------------------------------------------------------------------------5--------------|
D|-3-----------------------------------------------------------------------5--------------|
A|-3-----------------------------------------------------------------------3--------------|
E|-1--------------------------------------------------------------------------------------|
     Let the rain of what I feel right now come down. Let the rain come down.



Verse:
E|----------------------------------------------------------------------------------------|
B|----------------------------------------------------------------------------------------|
G|----------------------------------------------------------------------------------------|
D|-------------------------------------------------0----2------2--------------------------|
A|----------------------------------------------------------------------------------------|
E|----------------------------------------------------------------------------------------|
Where is the coast guard? I keep looking each direction for a spotlight give me something...
I need something for protection.

E|----------------------------------------------------------------------------------------|
B|----------------------------------------------------------------------------------------|
G|----------------------------------------------------------------------------------------|
D|----------------------------------------------------------0-----------------------------|
A|------------------------------------------------------------------3--------3------------|
E|----------------------------------------------------------------------------------------|
Maybe flotsam junk will do just fine. The jetsam sunk. I'm left behind. I'm treading for my life, believe me.
How can I keep up this breathing? Not knowing how to think, I scream aloud, begin to sink. 

E|----------------------------------------------------------------------------------------|
B|----------------------------------------------------------------------------------------|
G|----------------------------------------------------------------------------------------|
D|----------------------------------------------------------------------------------------|
A|--------------------------------------------------0-------------------------------------|
E|----------------------------------------------------------3---------3-------------------|
My legs and arms are broken down with envy for the solid ground. I'm reaching for the life within me.
How can one man stop his ending? 

E|------------------------------x-x-x-x-x-x-x-x-x-x-x-x-x-x-x-x---------------------------|
B|------------------------------x-x-x-x-x-x-x-x-x-x-x-x-x-x-x-x---------------------------|
G|------------------------------x-x-x-x-x-x-x-x-x-x-x-x-x-x-x-x---------------------------|
D|------------------------------x-x-x-x-x-x-x-x-x-x-x-x-x-x-x-x---------------------------|
A|------------------------------x-x-x-x-x-x-x-x-x-x-x-x-x-x-x-x---------------------------|
E|------------------------------x-x-x-x-x-x-x-x-x-x-x-x-x-x-x-x---------------------------|
I thought of just your face. Relaxed, and floated into space.



Chorus:
E|----------------------------------------------------------------------------------------|
B|----------------------------------------------------------------------------------------|
G|-5--------------------------------------------------------------------------------------|
D|-5--------------------------------------------------------------------------------------|
A|-3--------------------------------------------------------------------------------------|
E|----------------------------------------------------------------------------------------|
     I want to swim away but don't know how. Sometimes it feels just like I'm falling in the ocean.

E|----------------------------------------------------------------------------------------|
B|----------------------------------------------------------------------------------------|
G|-2--------------------------------------------------------------------------------------|
D|-2--------------------------------------------------------------------------------------|
A|-0--------------------------------------------------------------------------------------|
E|----------------------------------------------------------------------------------------|
     Let the waves up and take me down. Let the hurricane set in motion. Yeah.

E|----------------------------------------------------------------------------------------|
B|----------------------------------------------------------------------------------------|
G|-------------------------------------------------------------------------5--------------|
D|-3-----------------------------------------------------------------------5--------------|
A|-3-----------------------------------------------------------------------3--------------|
E|-1--------------------------------------------------------------------------------------|
     Let the rain of what I feel right now come down. Let the rain come down.



Verse:
E|----------------------------------------------------------------------------------------|
B|----------------------------------------------------------------------------------------|
G|----------------------------------------------------------------------------------------|
D|----------------------------------------0----2----------2-------------------------------|
A|----------------------------------------------------------------------------------------|
E|----------------------------------------------------------------------------------------|
Now waking to the sun, I calculate what I had done. Like jumping from the bow, yeah...
Just to prove that I knew how, yeah.
It's midnight's late reminder of the loss of her, the one I love.
My will to quickly end it all. Sit front row in my need to fall. Into the ocean end it all.

E|----------------------------------------------------------------------------------------|
B|----------------------------------------------------------------------------------------|
G|----------------------------------------------------------------------------------------|
D|----------------------------------------------------------------------------------------|
A|-----------------------------------------------------------------------0----------------|
E|-----------------------------------------------------------------------------3----3-----|
Into the ocean, end it all. Into the ocean, end it all. Into the ocean, end it all.
Into the ocean (goodbye), end it all (goodbye). Into the ocean (goodbye), end it all (goodbye).

E|---------------------------------------------x-x-x-x-x-x-x-x-x-x-x-x-x-x-x-x------------|
B|---------------------------------------------x-x-x-x-x-x-x-x-x-x-x-x-x-x-x-x------------|
G|---------------------------------------------x-x-x-x-x-x-x-x-x-x-x-x-x-x-x-x------------|
D|---------------------------------------------x-x-x-x-x-x-x-x-x-x-x-x-x-x-x-x------------|
A|---------------------------------------------x-x-x-x-x-x-x-x-x-x-x-x-x-x-x-x------------|
E|---------------------------------------------x-x-x-x-x-x-x-x-x-x-x-x-x-x-x-x------------|
Into the ocean (goodbye), end it all (goodbye).



Chorus:
E|----------------------------------------------------------------------------------------|
B|----------------------------------------------------------------------------------------|
G|-5--------------------------------------------------------------------------------------|
D|-5--------------------------------------------------------------------------------------|
A|-3--------------------------------------------------------------------------------------|
E|----------------------------------------------------------------------------------------|
     I want to swim away but don't know how. Sometimes it feels just like I'm falling in the ocean.

E|----------------------------------------------------------------------------------------|
B|----------------------------------------------------------------------------------------|
G|-2--------------------------------------------------------------------------------------|
D|-2--------------------------------------------------------------------------------------|
A|-0--------------------------------------------------------------------------------------|
E|----------------------------------------------------------------------------------------|
     Let the waves up and take me down. Let the hurricane set in motion. Yeah.

E|----------------------------------------------------------------------------------------|
B|----------------------------------------------------------------------------------------|
G|-------------------------------------------------------------------------5--------------|
D|-3-----------------------------------------------------------------------5--------------|
A|-3-----------------------------------------------------------------------3--------------|
E|-1--------------------------------------------------------------------------------------|
     Let the rain of what I feel right now come down. Let the rain come down.

E|----------------------------------------------------------------------------------------|
B|----------------------------------------------------------------------------------------|
G|----------------------------------------------------------------------------------------|
D|----------0-----------------------------------------------------------------------------|
A|-------------3--3----------------------------0------------------------------------------|
E|----------------------------------------------------------3-------3---------------------|
Into space.                                 I thought of just your face.



***********************************
| x   deadnote
***********************************



Questions?
Email at cory.roesch@yahoo.com
Suggest correction
comments
print report bad tab
guest
You may want to rate the tab now too:
select rating
Wanna post a correction for this tab? Suggest correction