Oops, an error
Loading. Please wait.

Say It tab

version 2
version 2

Whole song

Interactive

5,836 views 1 this week
1 commentread comment
1 2 3 4 5
2 more votes to show rating
add to favorites
×
Save as Personal and add changes to this tab that will be seen only by you. Learn more ›
×
You can save this tab as Personal to edit and correct it or add notes. All changes will be seen only by you. Learn more »
launch autoscroll
font size
0
reset
how to read this tab
guitar tuner
edit
Autoscroll
slow
fast
+/-
esc
set tempo
stop
Author
Difficulty
-------------------------------------------------------------
                    Say it - Blue october
-------------------------------------------------------------

Tabbed by: glade8316
Email: gladenielson@yahoo.com
Tuning: Standard

guitar 1 justin
guitar 2 CB


i am 100% sure that guitar 1 is right, i've
watched alot of videos of this song live in
order to figure it out and i think i've got it,
but im not 100% sure about guitar 2 but it sounds ok,
any corrections please let me know, 




Intro

guitar 1
e|---------------------------------------------------|
B|---1-1-5-5-0-0-1-1-1-1-1-1-1-1h3-0-0-0-0-5-5-0-0---|
G|---------------------------------------------------|
D|---------------------------------------------------|
A|---------------------------------------------------|
E|---------------------------------------------------|

e|---------------------------------------------------|
B|---1-1-1-1-1-1h3~--1~--1-1-5-5-0-0-----------------|
G|---------------------------------------------------|
D|---------------------------------------------------|
A|---------------------------------------------------|
E|---------------------------------------------------|

e|---------------------------------------------------|
B|---1-1-1-1-1-1-1-1h3-0-0-0-0-5-5-0-0-----3b--------|
G|---------------------------------------------------|
D|---------------------------------------------------|
A|---------------------------------------------------|
E|---------------------------------------------------|


guitar 2
e|------------------------------------------------|X2
B|------------------------------------------------|
G|---------------------------2222222222222222-----|
D|-----33333333---55555555---2222222222222222-----|
A|-----33333333---55555555---0000000000000000-----|
E|-----11111111---33333333------------------------|




no guitar during verse 1




when performing live justin hits each note once
and lets them ring as long as needed, but it sounds
fine if you strum too

Chorus

guitar 1
e|-----------------------------------------------------|x2
B|-----1~~~~~~~~---------------1~~~~~~~~~~~~~~~~-------|
G|-----0~~~~~~~~---1~~~~~~~~---2~~~~~~~~~~~~~~~~-------|
D|-----2~~~~~~~~---2~~~~~~~~---2~~~~~~~~~~~~~~~~-------|
A|-----3~~~~~~~~---2~~~~~~~~---0~~~~~~~~~~~~~~~~-------|
E|-----------------0~~~~~~~~---------------------------|
                                                  
                                                  
guitar 2                                          
e|--------------------------|x3|-----------------------|x1
B|---1-1-3-3-5-5-8-8-5~~~---|  |---1-1-0-0-1-1-0-0-----|
G|--------------------------|  |-------------------2---|
D|--------------------------|  |-----------------------|
A|--------------------------|  |-----------------------|
E|--------------------------|  |-----------------------|




intro again

guitar 1
e|--------------------------------------------------------|
B|---1-1-5-5-0-0-1-1-1-1-1-1-1-1h3-0-0-0-0-5-5-0-0---3b---|
G|--------------------------------------------------------|
D|--------------------------------------------------------|
A|--------------------------------------------------------|
E|--------------------------------------------------------|

guitar 2
e|------------------------------------------------|X2
B|------------------------------------------------|
G|---------------------------2222222222222222-----|
D|-----33333333---55555555---2222222222222222-----|
A|-----33333333---55555555---0000000000000000-----|
E|-----11111111---33333333------------------------|




verse 2

guitar 2
e|---------3~------------------------3~-------------------| repeat as
B|------------5~--------5~--------------5~--------5~------| many times
G|---5-4-5--------5-4-5----4~--5-4-5--------5-4-5----4~---| as needed
D|--------------------------------------------------------|
A|--------------------------------------------------------|
E|--------------------------------------------------------|




Chorus

guitar 1
e|-----------------------------------------------------|x2
B|-----1~~~~~~~~---------------1~~~~~~~~~~~~~~~~-------|
G|-----0~~~~~~~~---1~~~~~~~~---2~~~~~~~~~~~~~~~~-------|
D|-----2~~~~~~~~---2~~~~~~~~---2~~~~~~~~~~~~~~~~-------|
A|-----3~~~~~~~~---2~~~~~~~~---0~~~~~~~~~~~~~~~~-------|
E|-----------------0~~~~~~~~---------------------------|
                                         
                       
guitar 2                                          
e|--------------------------|x3|-----------------------|x1
B|---1-1-3-3-5-5-8-8-5~~~---|  |---1-1-0-0-1-1-0-0-----|
G|--------------------------|  |-------------------2---|
D|--------------------------|  |-----------------------|
A|--------------------------|  |-----------------------|
E|--------------------------|  |-----------------------|



intro again

guitar 1
e|--------------------------------------------------------|
B|---1-1-5-5-0-0-1-1-1-1-1-1-1-1h3-0-0-0-0-5-5-0-0---3b---|
G|--------------------------------------------------------|
D|--------------------------------------------------------|
A|--------------------------------------------------------|
E|--------------------------------------------------------|

guitar 2
e|------------------------------------------------|X2
B|------------------------------------------------|
G|---------------------------2222222222222222-----|
D|-----33333333---55555555---2222222222222222-----|
A|-----33333333---55555555---0000000000000000-----|
E|-----11111111---33333333------------------------|




bridge

guitar 2
e|----------------------------------------------------------------------|
B|----------------------------------------------------------------------|
G|----------------------------------------------------------------------|
D|---x-x----------------------------------2-2-2-2-2-2-2-2---xx--xx--x---|
A|---x-x--3-3-3-3-3-3-3-3-5-5-5-5-5-5-5-5-0-0-0-0-0-0-0-0---xx--xx--x---|
E|---x-x--1-1-1-1-1-1-1-1-3-3-3-3-3-3-3-3-------------------xx--xx--x---|
          * * * * * * * * * * * * * * * * * * * * * * * *

guitar 2
e|-----------------------------------------------------|
B|-----------------------------------------------------|
G|-----------------------------------2-2-2-2-2-2-2-2---|
D|---3-3-3-3-3-3-3-3-5-5-5-5-5-5-5-5-2-2-2-2-2-2-2-2---|
A|---3-3-3-3-3-3-3-3-5-5-5-5-5-5-5-5-0-0-0-0-0-0-0-0---|
E|---1-1-1-1-1-1-1-1-3-3-3-3-3-3-3-3-------------------|
    

guitar 2
e|-------------------------------|
B|-------------------------------|
G|-------------------------------|
D|---xx--xx--xx--xx--x--x--x-----|
A|---xx--xx--xx--xx--x--x--x-----|
E|---xx--xx--xx--xx--x--x--x-----|
       



last Chorus

guitar 1
e|-----------------------------------------------------|x2
B|-----1~~~~~~~~---------------1~~~~~~~~~~~~~~~~-------|
G|-----0~~~~~~~~---1~~~~~~~~---2~~~~~~~~~~~~~~~~-------|
D|-----2~~~~~~~~---2~~~~~~~~---2~~~~~~~~~~~~~~~~-------|
A|-----3~~~~~~~~---2~~~~~~~~---0~~~~~~~~~~~~~~~~-------|
E|-----------------0~~~~~~~~---------------------------|
                                                  
                                                  
guitar 2                                          
e|--------------------------|x4
B|---1-1-3-3-5-5-8-8-5~~~---|  
G|--------------------------|  
D|--------------------------|  
A|--------------------------|  
E|--------------------------|  

   


outro
   
guitar 1                             
e|-----------------------------------------------|
B|---1-1-3-3-5-5-8-8-5~~~----1-1-0-0-1-1-0-0-----|
G|-------------------------------------------2---|
D|-----------------------------------------------|
A|-----------------------------------------------|
E|-----------------------------------------------|

guitar 2
e|------------------------------------------------|
B|------------------------------------------------|
G|---------------------------2222222222222222-----|
D|-----33333333---55555555---2222222222222222-----|
A|-----33333333---55555555---0000000000000000-----|
E|-----11111111---33333333------------------------|




both guitars
e|------------------------------------------------|
B|------------------------------------------------|
G|---------------------------2222222222222222-----|
D|-----33333333---55555555---2222222222222222-----|
A|-----33333333---55555555---0000000000000000-----|
E|-----11111111---33333333------------------------|




guitar 1
e|-------------------------------------------------------------|
B|---3-3-5-5-6-5-6-8-6-5-6-8-6-5--5--33-55-33-55-33-55-33-55---|
G|-------------------------------------------------------------|
D|-------------------------------------------------------------|
A|-------------------------------------------------------------|
E|-------------------------------------------------------------|

guitar 2
e|------------------------------------------------|
B|------------------------------------------------|
G|---------------------------2222222222222222-----|
D|-----33333333---55555555---2222222222222222-----|
A|-----33333333---55555555---0000000000000000-----|
E|-----11111111---33333333------------------------|




guitar 1
e|--------------------------------------------------------|
B|---1-1-5-5-0-0-1-1-1-1-1-1-1-1h3-0-0-0-0-5-5-0-0---3b---|
G|--------------------------------------------------------|
D|--------------------------------------------------------|
A|--------------------------------------------------------|
E|--------------------------------------------------------|

guitar 2
e|------------------------------------------------|
B|------------------------------------------------|
G|---------------------------2222222222222222-----|
D|-----33333333---55555555---2222222222222222-----|
A|-----33333333---55555555---0000000000000000-----|
E|-----11111111---33333333------------------------|




guitar 2
e|-------------------------------|
B|-------------------------------|
G|-------------------------------|
D|---xx--xx--xx--xx--x--x--x-----|
A|---xx--xx--xx--xx--x--x--x-----|
E|---xx--xx--xx--xx--x--x--x-----|



please comment and rate

            
            
Suggest correction
Creating personal tab
Creating personal tab
You can edit any tab online and save it as your Personal.

You can edit, replace or remove any tab part or add personal notes – all changes will be seen only by you.

Personal tabs can be accessed anytime from any device, even offline.
Learn more »
Give kudos to tab author, rate the tab!
1 2 3 4 5
comments
print report bad tab
1 comment total.
0 reply
Denknee 41 Nov 11, 2009 07:29 AM

this sounds pretty good except i think during the chorus it sounds like you use your pinky to fret 3 on the b string during the Am chord.

guest
You may want to rate the tab now too:
select rating
Wanna post a correction for this tab? Suggest correction