Oops, an error
Loading. Please wait.

Sexual Powertrip tab

570 views 3 this week
no commentswrite comment
1 2 3 4 5
2 more votes to show rating
add to favorites
×
Save as Personal and add changes to this tab that will be seen only by you. Learn more ›
×
You can save this tab as Personal to edit and correct it or add notes. All changes will be seen only by you. Learn more »
launch autoscroll
font size
0
reset
how to read this tab
guitar tuner
edit
Autoscroll
slow
fast
+/-
esc
set tempo
stop
Author
Blue October
Sexual Powertrip
History For Sale

[]-Played First time through only

Intro: harmonics (2nd guitar)
E-----------|
B-----------|
G-5----5----|
D-----------|
A---3-----3-|
E-----------|

Riff 1
E-----[0]-----------------------------------|
B--------[1]--------------------------------|
G-[2]----------------------0--0-0-----------|
D-[2]-------------2--2-3-2--------2-3-2-3-2-|
A-[0]----------3----------------------------|
E-------------------------------------------|

Riff 2
E-------------------------------------|
B-------------------------------------|
G-10-10-10-10-9-9-9-9-7-7-7-7-5-5-5-5-|
D-x--x--x--x--x-x-x-x-x-x-x-x-x-x-x-x-|
A-8--8--8--8--7-7-7-7-5-5-5-5-3-3-3-3-|
E-------------------------------------|

Riff 3 (The middle of the verse is just some scratching over the strings)
E-x-x-x--x--x--x-|
B-x-x-x--x--x--x-|
G-x-x-x--x--x--x-|
D-x-x-x--x--x--x-|
A-x-x-x--x--x--x-|
E-x-x-x--x--x--x-|

Riff 4 the 0,1 is played on the second time around
E-------------------------------0---|
B---------------------------------1-|
G-------------0--0-0----------------|
D----2--2-3-2--------2-3-2-3-2------|
A-0---------------------------------|
E-----------------------------------|

Riff 5 strummed throughout entire part (you'll know what i mean)
E--
B--
G--
D--
A-3
E--

Riff 6
E-------|
B-------|
G-7-9-5-|
D-x-x-x
A-5-7-3-|
E-------|

Riff 7 strum the 15x17 to the end
E----------------|
B----------------|
G-10-12-14-16-17-|
D-x---x--x--x--x-|
A-8--10-12-14-15-|
E----------------|

Order:
Riff 1---------|4x
Riff 2---------|2x
Riff 3---------|1x
Riff 2---------|2x
Riff 1---------|2x
Riff 4---------|2x
Riff 5----64---|x lol i counted.
Riff 2---------|2x
Riff 6---------|1x
Riff 5----32---|x only half that time lol.
Riff 2---------|2x
Riff 7---------|1x

Questions?
Email at cory.roesch@yahoo.com

            
            
Suggest correction
Creating personal tab
Creating personal tab
You can edit any tab online and save it as your Personal.

You can edit, replace or remove any tab part or add personal notes – all changes will be seen only by you.

Personal tabs can be accessed anytime from any device, even offline.
Learn more »
Give kudos to tab author, rate the tab!
1 2 3 4 5
comments
print report bad tab
guest
You may want to rate the tab now too:
select rating
Wanna post a correction for this tab? Suggest correction