Oops, an error
Loading. Please wait.

Still Broken tab

version 2
version 2

Whole song

1,887 views 3 this week
2 commentsread comments
1 2 3 4 5
2 more votes to show rating
add to favorites
×
Save as Personal and add changes to this tab that will be seen only by you. Learn more ›
×
You can save this tab as Personal to edit and correct it or add notes. All changes will be seen only by you. Learn more »
launch autoscroll
font size
0
reset
how to read this tab
guitar tuner
edit
Autoscroll
slow
fast
+/-
esc
set tempo
stop
Author
UPDATE: The bass riff is now completely correct, the chords are correct, and the 
guitar riff is longer.

This song begins with a violin:

e-------------------------------------------|
B--3-5-3-7-5-3h5h3-2-2-0-0------------------|
G--------------------------2-2-0-0----2-----|
D-----------------------------------------0-|
A-------------------------------------------|
E-------------------------------------------|


Then bass:

G----------------------------------|
D----------------------------------|
A--5-5-------------------5-5----5--|
E------5-5-7-7-5-3-3-3-5-----5-5---|


Then the first guitar part is:

e-------------------------------------------|
B-------------------------------------------|
G--2/4-4/6-6/7-7--7h9-7-6h7-6h7-9-7-6h7p6---|
D-------------------------------------------|
A-------------------------------------------|
E-------------------------------------------|


e--------------------------------------|
B--------------------------------------|
G--2/4-4/6-6/7-7--7h9-7-6~-2~-0~-------|
D--------------------------------4~--2~|
A--------------------------------------|
E--------------------------------------|


Some chords come in but they are hard to hear because of the cello. But I think they are:

D A Bm A G A D, basically the bass riff in chords.
Suggest correction
Creating personal tab
Creating personal tab
You can edit any tab online and save it as your Personal.

You can edit, replace or remove any tab part or add personal notes – all changes will be seen only by you.

Personal tabs can be accessed anytime from any device, even offline.
Learn more »
Give kudos to tab author, rate the tab!
1 2 3 4 5
comments
print report bad tab
2 comments total.
0 reply
TheCrazyWaffle 50 Oct 13, 2009 12:07 PM

have you even tried playing this on an electric yet?
well from an acoustic at least it sounds good. we should finish the rest some time. =]

0 reply
1LPfan 70 Jan 13, 2011 10:16 AM

it actually sounds like hes picking more than one string but it still sounds good

guest
You may want to rate the tab now too:
select rating
Wanna post a correction for this tab? Suggest correction