Oops, an error
Loading. Please wait.

7 Screaming Diz-Busters Tab

version 1
version 1

Intro

Whole song

4,929 views 3 this week
5 commentsread comments
1 2 3 4 5
x 4
add to favorites
launch autoscroll
font size
0
reset
how to read this tab
guitar tuner
Autoscroll
slow
fast
+/-
esc
set tempo
stop
Help us to improve Ultimate-Guitar.com Take our survey!
×
Author
-----------------------------------------------------------------------------
                7 screaming diz-buster - blue oyster cult
-----------------------------------------------------------------------------
Tabbed by:erik brown
Email:fugdemonkey@aim.com

Tuning: standard

e|---------------------------------------------------------------------------|
B|-------------------------------------------5-------------------------------|
G|-------------------------------------------5-------------------------------|
D|-----9-------------------------------------5-------------------------------|
A|-----9------------5------7------9------------------------------------------|
E|-----7-----9---------------------------------------------------------------|
Suggest correction
comments
print report bad tab
5 comments total. Showing first comments.
+3 reply
brett dixon 141 Jun 10, 2008 07:50 PM

Where is the rest of the song?

0 reply
Aduro 30 Aug 22, 2009 03:12 AM

first note is not a power chord

the end of the riff is A. Try

x

0 reply
Aduro 30 Aug 22, 2009 03:23 AM

e|---------------------------------------------------------------------------|
B|---------------------------------------------------------------------------|
G|---------------------------------------------------------------------------|
D|------------------0------2------4---------/7-------------------------------|
A|-----2-----4---------------------------------------------------------------|
E|---------------------------------------------------------------------------|

guest
You may want to rate the tab now too:
select rating
Wanna post a correction for this tab? Suggest correction