Oops, an error
Loading. Please wait.

After Dark Bass Tab

version 1
version 1

Whole song

1,873 views 9 this week
1 commentread comment
1 2 3 4 5
worth learning
x 2
add to favorites
launch autoscroll
font size
0
reset
guitar tuner
Tab Pro tools
  • play this tab
  • loop segment
  • change instrument
  • show fretboard
  • metronome
Autoscroll
slow
fast
+/-
esc
set tempo
stop
Contributor
------------------------------------------------------------------
			     After Dark - Blue Oyster Cult
------------------------------------------------------------------

Tabbed By : Billy M
Song: After Dark
Band: Blue Oyster Cult
Album: Fire of Unknown Origin

Tuning: Standard

I couldn't find a tab anywhere of this, so I quickly threw it together.
The guitar solo part isn't really right, so any corrections are welcome.
The rest of it works just fine.

Intro:
G|-----------------------------------------------------------------------|
D|-----------------------------------------------------------------------|
A|--4444444444444444-----------------------------------------------------|
E|-------------------5555555555555555------------------------------------|

Verse 1:
G|-----------------------------------------------------------------------|
D|-----------------------------------------------------------------------|
A|--4444444444444444-----------------------------------------------------|
E|-------------------5555555555555555------------------------------------|

G|-----------------------------------------------------------------------|
D|-----------------------------------------------------------------------|
A|--2222---2222----------------2222---2222-------------------------------|
E|---------------3333---3333----------------3333---3333------------------|

Pre-Chorus: (x4)
G|-----------------------------------------------------------------------|
D|-----------------------------------------------------------------------|
A|---------2~------------------------------------------------------------|
E|--0~------------3~----0-0-2-3-2----------------------------------------|

Chorus: (x4)
G|-----------------------------------------------------------------------|
D|------------------0----------------------------------------------------|
A|----------------2----2-3-2-0-------------------------------------------|
E|--0-0-2-3---3-3--------------3-2-1-0-----------------------------------|

Verse 2:
G|-----------------------------------------------------------------------|
D|-----------------------------------------------------------------------|
A|--44x44x44x44-x---------------44x44x44x44-x----------------------------|
E|----------------55x55x55x55-x---------------55x55x55x55----------------|

G|-----------------------------------------------------------------------|
D|-----------------------------------------------------------------------|
A|--2222---2222-----------------2222---2222------------------------------|
E|----------------3333---3333-----------------3333---3333----------------|

Pre-Chorus (x4)
Chorus (x4)

Guitar Solo: I'm not too sure about this part at all
G|-----------------------------------------------------------------------|
D|-----------------------------------------------5-4------5-4------------|
A|-44---4----4---445--------------2---------55-4-----55-4-----5-4--------|
E|----5---55---5-----55-3-5-33-55--3-2-0---------------------------------|

G|-------------------------------4444--4444--4444--4-5-4-5---------------|
D|--5-3-0--5-3-0--5-3-0--5-3-0-----------------------------5-4-----------|
A|-------------------------------------------------------------5-4-------|
E|-----------------------------------------------------------------------|

Chorus (x2) Note: Guitar solo is still going

Verse 3:
G|-----------------------------------------------------------------------|
D|-----------------------------------------------------------------------|
A|--44x44x44x44-x---------------44x44x44x44-x----------------------------|
E|----------------55x55x55x55-x---------------55x55x55x55----------------|

G|-----------------------------------------------------------------------|
D|-----------------------------------------------------------------------|
A|--2222---2222-----------------2222---2222------------------------------|
E|----------------3333---3333-----------------3333---3333----------------|

Pre-Chorus (x4)
Chorus (x4)

Ending:
G|-----------------------------------------------------------------------|
D|-----------------------------------------------------------------------|
A|--2-3-2-3--------2-3-2-3--------2-3-2-3--------------------------------|
E|----------3-2-1----------3-2-1----------3-2-1~----drums---0~--------0--|

| ~  let ring
| /  slide up
| \  slide down
| h  hammer-on
| p  pull-off
| +  harmonic
| x  Mute note
==========================================================================
comments
We did not receive enough feedback on this tab! Please rate:
print report bad tab
1 2 3 4 5
1 comment total.
0 reply
chief1992 wrote on March 29 2013, 09:33 pm

i think the guitar solo goes something like
G-------| |-------| |-------| |-------| |------|
D-------| |-------| |-4-2---| |-------| |------|
A-4-2---|*4|-------|*4|-----4-|*4|-5-2-0-|*4 then into the |-2222-|
E-----5-| |-5-2-0-| |-------| |-------| |------|

this isnt accurate with timing and runs between but you can work that out easily. hope this helps

I want to post or [tab]
guest
You may want to rate the tab now too:
select rating
Please do not post tabs as comments. Select "correction" instead!