Oops, an error
Loading. Please wait.

Cagey Cretins Bass Tab

778 views 3 this week
no commentswrite comment
1 2 3 4 5
1 last vote to show rating
add to favorites
launch autoscroll
font size
0
reset
guitar tuner
Autoscroll
slow
fast
+/-
esc
set tempo
stop
Help us to improve Ultimate-Guitar.com Take our survey!
×
Cagey Cretins by the Blue Oyster Cult
(standard tuning)


|---------------------------|
|-----3---3---------3---3---|
|-5-5---5---5---5-5---5-----|
|---------------------------|


|-------------------|-----------2--|
|-3-5-3-------------|-3----5-------|
|-------5-3-5--5-5--|--------------|
|-------------------|--------------|
4 times

|---------------------------|
|-----3---3---------3---3---|
|-5-5---5---5---5-5---5-----|
|---------------------------|


|----------------------------------|
|-2-2-2-3-2--3-2----2-2-2-3--2-3---|
|----------------------------------|
|----------------------------------|


|-9--------------------------7--7--5---7--|
|---------/7--7-7-6--8-8-8-7---------7----|
|---5--5----------------------------------|
|-----------------------------------------|


|-------------------|-----------2--|
|-3-5-3-------------|-3----5-------|
|-------5-3-5--5-5--|--------------|
|-------------------|--------------|
4 times

|---------------------------|
|-----3---3---------3---3---|
|-5-5---5---5---5-5---5-----|
|---------------------------|


|----------------------------------|--------------|
|----------------------------------|-----3---3----|
|--5-5-5-5-5-5-5-5-5-5-5-5-5-5-5-5-|-5-5---5---5--|
|----------------------------------|--------------|
Suggest correction
Give kudos to tab author, rate the tab!
1 2 3 4 5
comments
print report bad tab
guest
You may want to rate the tab now too:
select rating
Wanna post a correction for this tab? Suggest correction