Oops, an error
Loading. Please wait.

Divine Wind Bass Tab

958 views 1 this week
no commentswrite comment
1 2 3 4 5
accurate
x 3
add to favorites
launch autoscroll
font size
0
reset
guitar tuner
Tab Pro tools
  • play this tab
  • loop segment
  • change instrument
  • show fretboard
  • metronome
Autoscroll
slow
fast
+/-
esc
set tempo
stop
Contributor
Difficulty
novice
Tabbed By : A player getting better and better
e-mail: organisedchaos@talktalk.net

Tuning: Standard EADG

Divine Wind by Blue Oyster Cult,  off Cultosaurus Erectus (1980)
bassist Joe Bouchard

great heavy rock song and fairly simple this is the main part
G|--------------------------------------------------------------------------|
D|--------------------------------------------------------------------------|
A|--------------------------------------------------------------------------|
E|-3-2-1-0--0-0-0-0-0--3-2-1-0--0-0-0-0-0--3-2-1-0--0-0-0-0-0---------------|


 "if he really thinks we're the devil"
G|-------------------7-8-9--------------------------------------------------|
D|--------------------------------------------------------------------------|
A|------5-7-7-5---5---------------------------------------------------------|
E|--5-7---------7-----------------3-2-1-0---0-0-0-0-0-----------------------|

a slight change at the bridge 02:36
G|--------------------------------------------------------------------------|
D|-------3-------3----3--------3----------------3--------3---3--------3-----|
A|-----3-------5----5--------3-----7-7-7------3--------5---5--------3---5-5-|
E|-3-5-----3-5-----------3-5--------------3-5------3-5----------3-5---------|

& back to the main part


have fun all you Agents Of Fortune and any comments/rates welcome
comments
We did not receive enough feedback on this tab! Please rate:
print report bad tab
1 2 3 4 5
I want to post or [tab]
guest
You may want to rate the tab now too:
select rating
Please do not post tabs as comments. Select "correction" instead!