Oops, an error
Loading. Please wait.

Dont Fear The Reaper Tab

version 2
version 2

Solo

Whole song

Interactive

26,835 views 27 this week
1 commentread comment
1 2 3 4 5
excellent!
x 3
add to favorites
launch autoscroll
font size
0
reset
how to read this tab
guitar tuner
Tab Pro tools
  • play this tab
  • loop segment
  • change instrument
  • show fretboard
  • metronome
×
Best way to learn
"Dont Fear The Reaper"
Autoscroll
slow
fast
+/-
esc
set tempo
stop
Difficulty
intermediate
 Solo to don’t fear the reaper
for jake from gabe


^
^- pick really fast
^


 
|----15------15br--13h15p13/12-13--15--15------------------|
|-----^-------------------------------------15~~~~~--------|
|-----^----------------------------------------------------|
|-----^----------------------------------------------------|
|----------------------------------------------------------|
|----------------------------------------------------------|


|-----11---13p11--15br~~~--/19-19---19bbb~~br--15----------|
|--15---15-------------------------------------------------|
|----------------------------------------------------------|
|----------------------------------------------------------|
|----------------------------------------------------------|
|----------------------------------------------------------|


|---15h16p15p13--15—15h16p15------15/13---13h15p13/12------|
|----------------------------------------------------------|
|----------------------------------------------------------|
|----------------------------------------------------------|
|----------------------------------------------------------|
|----------------------------------------------------------|


|13h16p13h16---10~h12--------------------------------------|
|-----------------------13------12h13p12----12-------------|
|-----------------------------------------13---12~~~~-12---|
|----------------------------------------------------------|
|----------------------------------------------------------|
|----------------------------------------------------------|

|15brp13----13---------------------------------------------|
|--------16----15br--13---15-15b---------15~~~~------------|
|----------------------------------------------------------|
|----------------------------------------------------------|
|----------------------------------------------------------|
|----------------------------------------------------------|

|----------------------------------------------------------|
|13h15p13/12~h13p12h13p12----12----------------------------|
|-------------------------13-----13p12—12/10—10/12—12~~~~~~|
|----------------------------------------------------------|
|----------------------------------------------------------|
|----------------------------------------------------------|

|----------------------------------------------------------|
|--13p12-----12--------------------------------------------|
|--------12-----13—12/10----10~~~~~~-----------------------|
|----------------------------------------------------------|
|----------------------------------------------------------|
|----------------------------------------------------------|

|---------------13-----------------------------------------|
|----------13----------------------------------------------|
|-10h12/13--------13---12~~~~~~~~~-------------------------|
|----------------------------------------------------------|
|----------------------------------------------------------|
|----------------------------------------------------------|

|----15br--------------------------------------------------|
|----------------------------------------------------------|
|-12--------12----12/10---10-------------------------------|
|----------------------------------------------------------|
|----------------------------------------------------------|
|----------------------------------------------------------|

|----------------------------------------------------------|
|----------------------------------------------------------|
|-10h12----12~~~~~~~~~~~~~~~~~~~~~~~~~~~~~~~~~~~~~~~~~~~~~~|
|----------------------------------------------------------|
|----------------------------------------------------------|
|----------------------------------------------------------|

|------------20br------------------------------------------|
|----------------------------------------------------------|
|~~~~~~~~~~~-----------------------------------------------|
|----------------------------------------------------------|
|----------------------------------------------------------|
|----------------------------------------------------------|
comments
We did not receive enough feedback on this tab! Please rate:
print report bad tab
1 2 3 4 5
1 comment total.
0 reply
guitarhero-24 wrote on December 8 2006, 08:18 pm

completely wrong nice try though

I want to post or [tab]
guest
You may want to rate the tab now too:
select rating
Please do not post tabs as comments. Select "correction" instead!