Oops, an error
Loading. Please wait.

Eti Extra Terrestrial Intelligence Tab

version 1
version 1

Intro

Interactive

4,486 views 6 this week
3 commentsread comments
1 2 3 4 5
x 3
add to favorites
launch autoscroll
font size
0
reset
how to read this tab
guitar tuner
Autoscroll
slow
fast
+/-
esc
set tempo
stop
Help us to improve Ultimate-Guitar.com Take our survey!
×
Author
Difficulty
intermediate
i couldn't find any tabs out there that got the intro right, so i
thought i'd post my own. this is how i play it, and i'm pretty sure
it's how BOC plays it too.

---------------------------------------------------------------------|
---------------------------------------------------------------------|
---------------------------------------------------------------------|
---------------------------------------------------------------------|
---2---4--------------2-4-5-5-4-2------------------------------------|
---0---0----0-2-0-3-4-------------3p2--------------------------------|
Suggest correction
Give kudos to tab author, rate the tab!
1 2 3 4 5
comments
print report bad tab
3 comments total.
0 reply
Bucketheadroolz 141 Jan 15, 2008 08:06 PM

nice

0 reply
BOC15 10 Mar 22, 2008 08:19 PM

eh.. not very good..

it starts off 2
2 4 rather than 2 4
0 0 0

+1 reply
BOC15 10 Mar 22, 2008 08:21 PM

----2---------
-2--4----------
-0------------

^^ other correction got messed up.

guest
You may want to rate the tab now too:
select rating
Wanna post a correction for this tab? Suggest correction