Oops, an error
Loading. Please wait.

Godzilla Bass

version 1
version 1

Whole song

Interactive

36,349 views 24 this week
8 commentsread comments
1 2 3 4 5
x 21
add to favorites
launch autoscroll
font size
0
reset
guitar tuner
backing track
0:00
0:00
×
Best way to learn
"Godzilla"
Autoscroll
slow
fast
+/-
esc
set tempo
stop
[Main Riff]
       F#m                        A           
       h.           e   e   e     h.           e   e   e
G|-----------------------------|---------------------------|
D|4:---------------------------|---------------1---2-------|
A|4:----------------2---4------|-----------------------2---|
E|-----2--------------------4--|--5------------------------|
  
[Chorus]
     E                         F#m
     e  e  e*e* e e e e 1  e  e  e*e* e e e e   e  e  e*e* e e e e
G|-----------------------|--------------------|--------------------|
D|o--2--2--0-0----------o|-4--4--2-2--1-1-0-3-|-4--4--2-2--1---2-3-|
A|o-------------4-4-2-2-o|--------------------|--------------4-----|
E|--(0)(0)---------------|(2)(2)--------------|--------------------|
  (These notes are often tied together and played as a single 
   quarter note)
   (alternate note)

[Bridge]
"Monster Bass"
    F#m
    w     s s e  q   q  s s  s s-----e  e   s   e. e  e    e  s  s----
G|-----|----9-11-11--R--9---------|--------------------------------|
D|-----|--11--------------11-9-11-|--11---------------10-H-11-10H11|
A|-----|--------------------------|-----12--11--9--R--8--H-9--8-H9-|
E|--2--|--------------------------|--------------------------------|

 ---q    e.  s  q  e.  s    q   e.  s  q  e.  s    
G|-----------------------|----------------------|------|
D|---11------------------|----------------------|-O-/--|
A|---9-------------------|----------------------|--/-O-|
E|-------R---2--2--R---2-|--2---R---2--2--R---2-|------|

    q   e.  s  e  e  e  s s----q  e.  s  q  e.  s  
G|----------------5-H6--5H6-|--6------------------|
D|----------------3-H4--3H4-|--4------------------|
A|--------------------------|---------------------|
E|--2---R---2--2------------|-----R---2--2--R---2-|

    q   e.  s  q  e.  s                          q   e.  s  q 
G|----------------------|------|------|------|-----------------|
D|----------------------|-O-/--|-O-/--|-O-/--|3:---------------|
A|----------------------|--/-O-|--/-O-|--/-O-|4:---------------|
E|--2---R---2--2--R---2-|------|------|------|---2---R---2--2--|


(Alternate Versions)
(these versions add a bit more character to the bassline, and
may more closely approximate the way the song is played live)

[Intro/Verse riff]
(Alternate Fingering)
       F#m                        A           
       h.           e   e   e     h.           e   e   e  
G|-----------------------------|---------------------------|
D|4:---------------------------|---------------------------|
A|4:----------------2-H-4------|---------------6-H-7-------|
E|-----2--------------------4/-|--5--------------------7\--|

[Bridge]
"Monster Bass" 
(alternate variation)
     F#m
   h. e e    s s  e  q  e e  s s  s s----e  e   s  e. e  e   e  s s----  
G|---------|-9-11-11-11-R-11-9--------|---------------------------------|
D|----R-11-|-------------------11-9-11|---11-9---7--------9-H-11-9H11---|
A|---------|--------------------------|------------9--R--7-H-9--7H9-----|
E|-2-------|--------------------------|---------------------------------|

 ---h       q     e.  s    q   e.  s  q   e.  s  
G|-----------------------|-----------------------|
D|---11------11\x--------|-----------------------|
A|---9-------9\x---------|-----------------------|
E|----------------R---S0-|-H2--R---S0-H2--R---S0-|

    q   e. s  e  e  s  e.  q  e. s  q   e.  s  3
G|-----------------------|----------------------|
D|o----------------------|---------------------o|
A|o----------------------|---------------------o|
E|--H2--R--S0-H2-2--R--4-|-2--R--S0-H2--R---S0--|

   q   e. s  q   e. s     s s s e. s s s s s s
G|--------------------|---------2--------------|
D|--------------------|3:-2-3-4----4-2---------|
A|------------------4-|4:--------------4-3-2---|
E|-H2--R--S0-H2--R----|----------------------2-|


************************************

| (n)  Ghost note
| s    Slap
| /    Slide up
| \    Slide down

************************************
Suggest correction
comments
print report bad tab
8 comments total. Showing first comments.
-1 reply
echo72 40 May 05, 2002 08:00 PM

yeah this is way to complicated. unecessary

+3 reply
lounge act 99 Apr 28, 2007 09:30 PM

^no it isnt too complicated its a very good tab

0 reply
Ice Cold J 30 Nov 06, 2007 11:03 AM

It's a good tab, but it gets a little confusing.
5* though!

guest
You may want to rate the tab now too:
select rating
Wanna post a correction for this tab? Suggest correction