Oops, an error
Loading. Please wait.

Godzilla Tab

version 1
version 1

Whole song

Interactive

76,583 views 66 this week
14 commentsread comments
1 2 3 4 5
x 26
add to favorites
launch autoscroll
font size
0
reset
how to read this tab
guitar tuner
backing track
0:00
0:00
×
Best way to learn
"Godzilla"
Autoscroll
slow
fast
+/-
esc
set tempo
stop
[Main Riff]
e|--------------------------------------------------------------------|
B|--------------------------------------------------------------------|
G|--------------------------------------------------------------------|
D|-------------------------1--2------------------------------1--2-----|
A|---------2--4------0-0---------2--------2---4------0--0--------2----|
E|---2-2---------4-----------------2--2-----------4----------------2--|

(it also switches to an octave higher at some point:)
e|--------------------------------------------------------------|
B|------------------------4--5----------------------------------|
G|--------4--6-----------------4--------------------------------|
D|---4-4--------6--7--7-----------4--4--------------------------|
A|--------------------------------------------------------------|
E|--------------------------------------------------------------|
Suggest correction
comments
print report bad tab
14 comments total. Showing first comments.
+2 reply
skinning lynyrd 15 Apr 19, 2006 03:26 PM

what the **** man. the intro isnt 1 not at a time. it goes:

gitar 1
|---------------------------------|
|---------------------------------|
|---------4-6----------7-9--------|
|---4-4h4-4-6-6--7-7h7-7-9-9------|
|---4-4h4-2-4-6--7-7h7-5-7-9------|
|---2-2h2-----4--5-5h7-----7------|

it repeats throughout the song. on the 3rd time guitars 2+3 come in
right after the first chord and it sounds like this:

Guitar 2+3 together
|---b7-------------b7------------------------
|---b7-------------b7----------------------
|------------------------------------------
|------------------------------------------
|------------------------------------------
|------------------------------------------
guitar 1
|--------------------------------------------
|--------------------------------------------
|------4--6-----------7--9-------------------
|--4---4--6-6----7----7--9--9----------------
|--4---2--4-6----7----5--7--9----------------
|--2--------4----5----------7----------------

repeat until voice comes in


and dude thats just the begining. i dont feal like taking the time to post all the solos and shit but u left out a LOT!

What was all u thinkin who gave this 5s

+1 reply
Guitar_picker_1 20 May 12, 2006 07:23 PM

Home dude doesnt know what hes talking about... Read the other tabs this is shit.

-1 reply
bluesman_39 10 Jul 29, 2006 06:25 PM

this is horrible. nuff said

guest
You may want to rate the tab now too:
select rating
Wanna post a correction for this tab? Suggest correction