Oops, an error
Loading. Please wait.

Godzilla Bass Tab

version 2
version 2

Whole song

Interactive

10,633 views 12 this week
3 commentsread comments
1 2 3 4 5
excellent!
x 11
add to favorites
launch autoscroll
font size
0
reset
guitar tuner
Autoscroll
slow
fast
+/-
esc
set tempo
stop
Help us to improve Ultimate-Guitar.com Take our survey!
×
Author
Difficulty
advanced
Artist:Blue Oyster Cult
Song:Godzilla
Album:Spectres
Bassist:Joe Bouchard
Tabber:Dev Fuld

I received a request for this song. I think mine is most accurate, and I threw 
in my version of the solo along with the original.

Key:
* = let it ring
/ = slide up

Intro
G:-------------------------------------------------------------------------------|
D:--------------1-2-----------------1-2-----------------1-2-----------------1-2--|
A:----2-4-----------2-----2-4-----------2-----2-4-----------2-----2-4-----------2|
E:2*------4-5*--------2*------4-5*--------2*------4-5*--------2*------4-5*-------|

Verse
G:-------------------------------------------------------------------------------|
D:--------------1-2-----------------1-2-----------------1-2-----------------1-2--|
A:----2-4-----------2-----2-4-----------2-----2-4-----------2-----2-4-----------2|
E:2*------4-5*--------2*------4-5*--------2*------4-5*--------2*------4-5*-------|

G:---------------------------------------|
D:--------------1-2-----------------1-2--|
A:----2-4-----------2-----2-4-----------2|
E:2*------4-5*--------2*------4-5*-------|

Chorus
G:-----------|-----------|-----------|-----------|-----------|-----------|
D:2*-0*------|2*-0*------|4*-2*-1*---|4*-2*-1*---|2*-0*------|2*-0*------|
A:------4*-2*|------4*-2*|---------4*|---------4*|------4*-2*|------4*-2*|
E:-----------|-----------|-----------|-----------|-----------|-----------|

G:-----------|-----------|
D:4*-2*-1*---|4*-2*-1*---|
A:---------4*|---------4*|
E:-----------|-----------|

Guitar Solo
G:-------------------------------------------------------------------------------|
D:--------------1-2-----------------1-2-----------------1-2-----------------1-2--|
A:----2-4-----------2-----2-4-----------2-----2-4-----------2-----2-4-----------2|
E:2*------4-5*--------2*------4-5*--------2*------4-5*--------2*------4-5*-------|

Chorus

Bass Solo (Real Version)
G:---------9-11-11---9------------------------------|
D:------11-------------11-9-11-----------10/11-10/11|
A:------------------------------12-11-9--8/9---8/9--|
E:2*/14---------------------------------------------|

G:------------------------------------------------------------------------|
D:-----------------------10/11-10/11--------------------------------------|
A:-----------------------8/9---8/9----------------------------------------|
E:2--22--2--22--2--22--2-------------22--2--22--2--22--2--22--2--22--2--22|

Bass Solo (My Version)
G:---------9-11-11--8-9-----------14--13-11----------11---------11*|
D:------11--------------11-9-11--------------9/10/11----9/10/11----|
A:------------------------------12--11--9----7/8/9------7/8/9------|
E:2*/14------------------------------------------------------------|

G:------------------------------------------------------------------------|
D:-----------------------10/11-10/11--------------------------------------|
A:-----------------------8/9---8/9----------------------------------------|
E:2--22--2--22--2--22--2-------------22--2--22--2--22--2--22--2--22--2--22|

Chorus

After Chorus
G:---------------------------------------|
D:--------------1-2-----------------1-2--|
A:----2-4-----------2-----2-4-----------2|
E:2*------4-5*--------2*------4-5*-------|

End (Last Verse)
G:-------------------------------------------------------------------------------|
D:--------------1-2-----------------1-2-----------------1-2-----------------1-2--|
A:----2-4-----------2-----2-4-----------2-----2-4-----------2-----2-4-----------2|
E:2*------4-5*--------2*------4-5*--------2*------4-5*--------2*------4-5*-------|

G:-------------------------------------------------------------|
D:--------------1-2-----------------1-2-----------------1-2----|
A:----2-4-----------2-----2-4-----------2-----2-4-----------2--|
E:2*------4-5*--------2*------4-5*--------2*------4-5*--------2|

That's it. I think mine is best. I already put it in order for you, so plug and 
play. Any questions or comments, e-mail me at rocklvson@yahoo.com

Suggest correction
What's this?
You can suggest a correction to this tab. Community and Mods will review your correction and vote to approve or reject it.
comments
print report bad tab
3 comments total.
0 reply
Zachy Boy 318 wrote on February 8 2007, 06:40 pm

This tab is really good, just one thing:

G:---------9-11-11---9------------------8/9--8/9----|
D:------11-------------11-9-11----------6/7--6/7----|
A:------------------------------12-11-9-------------|
E:2*/14---------------------------------------------|

The slide is off; its played on D & G

0 reply
playinbass1432 2,582 wrote on December 1 2007, 10:43 am

This tab is excellent. Good job, my friend.

0 reply
BTB450QM 54 wrote on February 18 2008, 09:44 am

No, the slide is right, great job!

guest
You may want to rate the tab now too:
select rating
Please do not post tabs as comments. Select "correction" instead!