Oops, an error
Loading. Please wait.

Godzilla Bass Tab

version 3
version 3

Whole song

Interactive

5,807 views 1 this week
no commentswrite comment
1 2 3 4 5
1 last vote to show rating
add to favorites
launch autoscroll
font size
0
reset
guitar tuner
Autoscroll
slow
fast
+/-
esc
set tempo
stop
Help us to improve Ultimate-Guitar.com Take our survey!
×
Author
Difficulty
intermediate
-----------------------------------------------------------------------
			 GODZILLA – Blue Oyster Cult
-----------------------------------------------------------------------
   This song is relaxed, so let the notes ring for as long as you can, it sounds 
 This is the version where I put the repeats in the top, if you want one with the whole song 
out, send me an email.  This is my first tab so rate and review it and tell me
how I did, thanks!!!

Tabbed By : Jeremy Totton
e-mail: radioshackheadphones@hotmail.com
Tuning: Standard E-A-D-G

  Intro/Verse (x10) on 10, don’t play the 2 on the E string, and go straight to the chorus.
G|-----|--------------------------------------------------------------|
D|-----|-------------------1---2--------------------------------------|
A|-----|---2---4-------------------2----------------------------------|
E|-(2)-|-----------4---5---------------2------------------------------|

  Chorus (x2)
G|---------------------------------|----------------------------------|
D|--2---2---0---0------------------|--2---2---0---0-------------------|
A|------------------4---4---2---2--|------------------4---4---2---2---|
E|---------------------------------|----------------------------------|

G|---------------------------------|----------------------------------|
D|--4---4---2---2---1---1---0---0--|--4---4---2---2---1---0---1---3---|
A|---------------------------------|----------------------------------|
E|---------------------------------|----------------------------------|

  Verse (x4) on 4 don’t play the 2 on the E string and go straight to the chorus.

  Chorus (x2) after the 3 on the D string, play a 4 on the same string and hold it until 
bass solo.

  Bass Solo
G|--------9---11---11---9---------------------------------------------|
D|---11---------------------11---9---11----------------10-/11--10-/11-|
A|----------------------------------------12---11---9---8-/-9---8-/-9-|
E|--------------------------------------------------------------------|

  Bridge (Shouting ‘Godzilla”)
G|--------------------------------------------------------------------|
D|--------------------------------10-/11--10-/11----------------------|
A|---------------------------------8-/-9---8-/-9----------------------|
E|---2---2-2---2---2-2---2---2-2------------------2-2---2---2-2---2---|

G|--------------------------------------------------------------------|
D|--------------------------------------------------------------------|
A|--------------------------------------------------------------------|
E|---2-2---2---2-2---2---2-2---2---2-2--------------------------------|

Chorus (x2)

 Verse (x8)

          ___
        +|o o|+                       | /  slide up
        +|o_o|+                       | \  slide down
          | |                         | h  hammer-on
          | |                         | p  pull-off
          | |                         | ~  vibrato
          | |                         | +  harmonic
          | |                         | x  Mute note
          | |
          | |
          | |
          | |
    __    | |
    \ \   | |    __
     \ \ _| | __/ /
      \   | |    /
       |        |
       |  |==|  |
       |  |==|  |
      |          |
      |          |
       \________/
============================================================================
Suggest correction
Give kudos to tab author, rate the tab!
1 2 3 4 5
comments
print report bad tab
guest
You may want to rate the tab now too:
select rating
Wanna post a correction for this tab? Suggest correction