Oops, an error
Loading. Please wait.

Godzilla Tab

version 4
version 4

Whole song

Interactive

17,891 views 48 this week
1 commentread comment
1 2 3 4 5
accurate
x 5
add to favorites
launch autoscroll
font size
0
reset
how to read this tab
guitar tuner
Tab Pro tools
  • play this tab
  • loop segment
  • change instrument
  • show fretboard
  • metronome
×
Best way to learn
"Godzilla"
Autoscroll
slow
fast
+/-
esc
set tempo
stop
Contributor
Godzilla 
Blue Oyster Cult
Tabbed by btb3
fb-full bend

Verse

e---------------------------|
b---------------------------|
g-----4--6--------8--9------|
d--4--4--6--6--7--8--9--9---|
a--4--2--4--6--7--6--7--9---|
e--2--------4--5--------7---|

Chorus

e---------------------------|
b---------------------------|
g---------------------------|   X2
d---------------------------|   
a--7-7--5-5--4-4--2-2-------|
e--0-0--0-0--0-0--0-0-------|

e---------------------------|
b---------------------------|
g---------------------------|   X2
d---------------------------|
a4-4-4-4---4-4-4-4----------|
e2-2-2-2---2-2-2-2----------|

Riff 1

e-----------------------14---------------------|
b--17-17-17fb-17-17----------------------------|
g-------------------16fb---16hb-14----16-14----|
d----------------------------------16------16--|
a----------------------------------------------|
e----------------------------------------------|

Riff 2

e-------------------|--------------------------|
b-------------------|--------------------------|
g---------------14--|-----------------14-------|
d-----------14-16---|-----------14-16---16-----|
a--14-15-16---------|--14-15-16----------------|
e-------------------|--------------------------|

e----------------------------------------------|
b----------------------------------------------|
g----------------14-16fb-16-14--14-------------|
d----------14-16--------------16--16-----------|
a--14-15-16------------------------------------|
e----------------------------------------------|

Riffs (after chorus)

e--17fb-17-14--14---|-------------------|
b------------17--17-|--17-14-17-14------|
g-------------------|-------------16-14-|
d-------------------|-------------------|
a-------------------|-------------------|
e-------------------|-------------------|

e-------------------|----------------------------------|
b-------------------|----------------------------------|
g--16-14-16-14------|----------------------------------|
d-------------16-14-|-16-14-16-14----------------------|
a-------------------|------------16-14-16-14-16-14-12--|
e-------------------|--------------------------------14|
comments
print report bad tab
1 comment total.
0 reply
g9rocks64 wrote on June 26 2009, 10:26 pm

Sort of the right direction, but the older bands used power bar chords a lot. These should be complete chords and some of the octaves aren't correct, like using fifth string 7th fret for E; they used the lower chord, either open E or open sixth with bar fifth/fourth string, 2nd fret.

I want to post or [tab]
guest
You may want to rate the tab now too:
select rating
Please do not post tabs as comments. Select "correction" instead!