Oops, an error
Loading. Please wait.

Goin Through The Motions Bass Tab

version 1
version 1

Whole song

592 views 1 this week
no commentswrite comment
1 2 3 4 5
accurate
x 3
add to favorites
launch autoscroll
font size
0
reset
guitar tuner
Tab Pro tools
  • play this tab
  • loop segment
  • change instrument
  • show fretboard
  • metronome
×
Best way to learn
"Goin Through The Motions"
Autoscroll
slow
fast
+/-
esc
set tempo
stop
Contributor
----------------------------------------------------------------------------
	        Goin Through The Motions - Blue Oyster Cult           
----------------------------------------------------------------------------

Bass Comes In At 0:04

 G|-99999999-88888888-77777777-666666----|
 D|-----------------------------------9\-|
 A|--------------------------------------|
 E|--------------------------------------|

 G|---------------------------|
 D|-2~---2-1~---1-0~---0------|
 A|----2------2------2---4~-2-|
 E|---------------------------|

 G|---------------|
 D|---------------| x4
 A|-7-------7-7---|
 E|---77-55-----7-|

 G|-99999999-88888888-77777777-666666----|
 D|-----------------------------------9\-|
 A|--------------------------------------|
 E|--------------------------------------|

 G|---------------------------|
 D|-2~---2-1~---1-0~---0------|
 A|----2------2------2---4~-2-|
 E|---------------------------|

 G|---------------|
 D|---------------| x4
 A|-7-------7-7---|
 E|---77-55-----7-|

You gotta listen to this part to get it right
 G|--------------------------------------------------------------------|
 D|--------------------------------------------------------------------|
 A|-11--11-11\8-88--9-99--11--11-11---11--11-11\7-77--2-22/9-99---9-99-|
 E|-------------------------------------------------------------9------|

  |--------------------------------------------------------------------|
  |--------------------------------------------------------------------|
  |-12--12-12---14--14-14--7---7-6---6-4-------------------------------|
  |--------------------------7-----7-----7--55555555-44444444-22222222-|

  |----------|
  |----------|
  |----------|
  |-00000000-|

 G|--------------------|
 D|--------------------| x3
 A|-7----------7-7-----|
 E|---9-77-55------9-7-|

 G|-----------------------|
 D|-----------------------| 
 A|-7----------7-7-----7~-|
 E|---9-77-55------9-7----|

 G|-99999999-88888888-77777777-666666----|
 D|-----------------------------------9\-|
 A|--------------------------------------|
 E|--------------------------------------|

 G|---------------------------|
 D|-2~---2-1~---1-0~---0------|
 A|----2------2------2---4~-2-|
 E|---------------------------|

 G|------------------|
 D|------------------| x3
 A|-7--------7-7-----|
 E|---77-55------9-7-|

 G|------------------|
 D|------------------| 
 A|-7--------7-7-7-8-|
 E|---77-55----------|

 G|---------------------|
 D|---------------------| x3
 A|-9----------9-9------|
 E|---11-99-77-----11-9-|

 G|-------------------|
 D|-------------------| Fade Out
 A|-9--------9-9------|
 E|----99-77-----11-9-|


| /  slide up
| \  slide down
| ~  vibrato
============================================================================
comments
We did not receive enough feedback on this tab! Please rate:
print report bad tab
1 2 3 4 5
I want to post or [tab]
guest
You may want to rate the tab now too:
select rating
Please do not post tabs as comments. Select "correction" instead!