Oops, an error
Loading. Please wait.

Goin Through The Motions Bass Tab

version 2
version 2

Whole song

144 views 1 this week
no commentswrite comment
1 2 3 4 5
please rate
add to favorites
launch autoscroll
font size
0
reset
guitar tuner
Autoscroll
slow
fast
+/-
esc
set tempo
stop
Help us to improve Ultimate-Guitar.com Take our survey!
×
Goin' Through the Motions by the Blue Oyster Cult
(standard tuning)


|-------------------------------------------|
|-------------------------------------------|
|-/7---7-7----6---6-6----5---5-5----4---4-4-|
|-------------------------------------------|

chorus
|-------------------|
|-------------------|
|-7---7-7-------7-7-|
|---------5--5------|
4 times


|--------------------------------------------------------------------------|
|-6--6-6--3---3-3--4--4-4--6---6-6--6---6-6----------------4---4-4--4--4-4-|
|-------------------------------------------7--7-7----------------4--------|
|--------------------------------------------------7--7-7------------------|


|----------4---4-4---9--8--6-----------------------------------------|
|-7---7-7---------------------9----6--6-6--3---3-3--4--4-4--6---6-6--|
|--------------------------------------------------------------------|
|--------------------------------------------------------------------|


|-------------------|
|-------------------|
|-7---7-7-------7-7-|
|---------5--5------|


|-------------------------------------------|
|-------------------------------------------|
|-/7---7-7----6---6-6----5---5-5----4---4-4-|
|-------------------------------------------|


|-------------------|
|-------------------|
|-7---7-7-------7-7-|
|---------5--5------|
Suggest correction
Give kudos to tab author, rate the tab!
1 2 3 4 5
comments
print report bad tab
guest
You may want to rate the tab now too:
select rating
Please do not post tabs as comments. Select "correction" instead!