Oops, an error
Loading. Please wait.

Goin Through The Motions Tab

version 2
version 2

Whole song

1,296 views 1 this week
no commentswrite comment
1 2 3 4 5
1 last vote to show rating
add to favorites
launch autoscroll
font size
0
reset
how to read this tab
guitar tuner
Autoscroll
slow
fast
+/-
esc
set tempo
stop
Help us to improve Ultimate-Guitar.com Take our survey!
×
Goin' Through the Motions by the Blue Oyster Cult
(standard tuning)

h    hammer on
p    pull off
/    slide up
\    slide down
b    bend
r    release

|--------------------------------------------------------------------|
|--------------------------------------------------------------------|
|--------------------------------------------------------------------|
|-9-9-9-9-9-9-9-9--8-8-8-8-8-8-8-8--7-7-7-7-7-7-7-7--6-6-6-6-6-6-6-6-|
|-7-7-7-7-7-7-7-7--6-6-6-6-6-6-6-6--5-5-5-5-5-5-5-5--4-4-4-4-4-4-4-4-|
|--------------------------------------------------------------------|


|--------------------------|
|--------------------------|
|--------------------------|
|-9-9-9-9-9-9-9-9-9------9-|
|-7-7-7-7-7-7-7-7-7--7-7-7-|
|--------------------5-5---|


|---------0-----|
|-------4-------|
|-----2---------|
|---2-----------|
|-4-------------|
|---------------|
4 times


|--------------7b(9)--7---------------------------------------------|
|-----------------------10-0-8-9------------------------------10--9-|
|---------------------------------11b(13)-(13)--(13)-(13)-11--------|
|-9-9-9-9-9-9-9-----------------------------------------------------|
|-7-7-7-7-7-7-7-----------------------------------------------------|
|-------------------------------------------------------------------|


|---------------------------7------------------------------------7-------|
|-9--9-7-7--7-5-----5--7b(9)-(9)r--5-------5--5------5--5-7-7b(9)-(9)r-7-|
|---------------4h6--------------------6p4-------6p4---------------------|
|------------------------------------------------------------------------|
|------------------------------------------------------------------------|
|------------------------------------------------------------------------|


|----------/12--12-12-12--12-12-12-9--------------------------|------------|
|-7-----7----------------------------12-9---------------------|------------|
|---6p4-----------------------------------11b(13)r--9-11--9\--|------------|
|-------------------------------------------------------------|-2-----2-2--|
|-------------------------------------------------------------|-0--2--0-0-2|
|-------------------------------------------------------------|----0------0|


|--------------------------------------------------------------------|
|--------------------------------------------------------------------|
|--------------------------------------------------------------------|
|-9-9-9-9-9-9-9-9--8-8-8-8-8-8-8-8--7-7-7-7-7-7-7-7--6-6-6-6-6-6-6-6-|
|-7-7-7-7-7-7-7-7--6-6-6-6-6-6-6-6--5-5-5-5-5-5-5-5--4-4-4-4-4-4-4-4-|
|--------------------------------------------------------------------|


|------------------------|
|------------------------|
|------------------------|
|-9-9-9-9-9-9-9-9------9-|
|-7-7-7-7-7-7-7-7--7-7-7-|
|--------------------5-5-|


|-------------------------------|
|-------------------------------|
|-------------------------------|
|-11-11-11-11-11-11-11-------11-|
|-9--9--9--9--9--9--9---9-9--9--|
|-----------------------7-7-----|

Suggest correction
Give kudos to tab author, rate the tab!
1 2 3 4 5
comments
print report bad tab
guest
You may want to rate the tab now too:
select rating
Wanna post a correction for this tab? Suggest correction