Oops, an error
Loading. Please wait.

Heavy Metal Bass Tab

1,215 views 1 this week
no commentswrite comment
1 2 3 4 5
please rate
add to favorites
launch autoscroll
font size
0
reset
guitar tuner
Autoscroll
slow
fast
+/-
esc
set tempo
stop
Help us to improve Ultimate-Guitar.com Take our survey!
×
Author
----------------------------------------------------------------------------
          Heavy Metal: The Black And The Silver - Blue Oyster Cult
----------------------------------------------------------------------------

Bass comes in at 0:09

 G|-----------------|
 D|-------7-5-------|
 A|-----7-----7-----|
 E|-5-5---------8\3-|

 G|-------------------|
 D|---------7-5-------| x3
 A|-------7-----7-----|
 E|-3h5-5---------8\3-|

 G|-------------------------------------|
 D|-------------------------------------|
 A|-----4-5-5-5h7p5h7-----2-3-3-3h5p3h5-|
 E|-3h5-----------------3---------------|

 G|-----------------------------------|
 D|-----------------------------------| x3
 A|---4-5-5-5h7p5h7-----2-3-3-3h5p3h5-|
 E|-5-----------------3---------------|

 G|-----------------|
 D|-------7-5-------|
 A|-----7-----7-----|
 E|-5-5---------8\3-|

 G|-------------------|
 D|---------7-5-------| x3
 A|-------7-----7-----|
 E|-3h5-5---------8\3-|

 G|-------------------------------------|
 D|-------------------------------------|
 A|-----4-5-5-5h7p5h7-----2-3-3-3h5p3h5-|
 E|-3h5-----------------3---------------|

 G|-----------------------------------|
 D|-----------------------------------| x3
 A|---4-5-5-5h7p5h7-----2-3-3-3h5p3h5-|
 E|-5-----------------3---------------|

 G|-----------------|
 D|-------7-5-------|
 A|-----7-----7-----|
 E|-5-5---------8\3-|

 G|-------------------|
 D|---------7-5-------| x3
 A|-------7-----7-----|
 E|-3h5-5---------8\3-|

 G|---------------------------------------|
 D|---------------------------------------| x3
 A|-55-555\---55-555\---------------------|
 E|---------------------55-555\---55-555\-|

 G|---------------------------------------|
 D|---------------------------------------|
 A|-55-555\---55-555\---77-777\---77-777\-|
 E|---------------------------------------|

 G|----------------------|
 D|----------------------|
 A|------rest-------rest-|
 E|-5-5--------5-5-------|

 G|-------------------|
 D|---------7-5-------| x4
 A|-------7-----7-----|
 E|-3h5-5---------8\3-|

 G|------------------------------------|
 D|------------------------------------|
 A|----rest-----rest-----rest-----rest-|
 E|-5--------5--------5--------5-------|

This last part you really gotta listen to to understand. Im not sure how
many time you play each fret because they are played really fast but here
are the frets u play.

 G|------------------------------------------------------------------------|
 D|---7-5------------------------------------------------------------------|
 A|-------7-5--------------------------------------------------------------|
 E|-5---------8-5----------------------------------------------------------|


============================================================================
| \  slide down
| h  hammer-on
| p  pull-off
============================================================================
Suggest correction
Give kudos to tab author, rate the tab!
1 2 3 4 5
comments
print report bad tab
guest
You may want to rate the tab now too:
select rating
Please do not post tabs as comments. Select "correction" instead!