Oops, an error
Loading. Please wait.

Hasnt Hit Me Yet Tab

13,519 views 6 this week
1 commentread comment
1 2 3 4 5
x 3
add to favorites
launch autoscroll
font size
0
reset
how to read this tab
guitar tuner
×
Best way to learn
"Hasnt Hit Me Yet"
Autoscroll
slow
fast
+/-
esc
set tempo
stop
Author
Capo
  follow
2nd fret
ok i looked at the one tab and this website and it sounds so wrong to me so i
figured why not help out all the other blue rodeo fans and give em' a good tabbed version.

song: hasnt hit me yet
band: blue rodeo
tabbed by benny D

p= pull of from note before
h= hammer on note

CAPO ON 2


          this part is like a triplet
                      /\
]---2-2-p0-2--3-3-3--p2-p0-0-----0------0--------------------|
]---3-3--3-3--3-3-3--3--3--3-----0------1--------------------|
]---2-2--2-2--2-2-2--2--2--2-----0X5----0X5------------------|listen 2 song
]---0-0--0-0--0-0-0--0--0--3-----2------2--------------------|4 rythm
]--------------------------------2------3--------------------|
]--------------------------------0------0--------------------|


VERSE1:
G,D,EM,C,x4

CHORUS
EM , G ,D,A
HEY,HEY,..... PLAY INTRO 2 TIMES AFTER CHORUS

VERSE2:
G,D,EM,C x2

AND LAST PART IS SAM AS CHORUS,

THX FOR UR TIME, ENJOY AND KEEP ROCKIN!!
Suggest correction
Give kudos to tab author, rate the tab!
1 2 3 4 5
comments
print report bad tab
1 comment total.
0 reply
rygor42 31 Aug 04, 2011 08:47 AM

the intro is wrong. this is correct below:

]---2--2--0-2--3--2--0--2-2--0-----3------3-------------|
]---3--3--3-3--3--3--3--3-3--3-----3------3-------------|
]---2--2--2-2--2--2--2--2-2--2-----0------0-------------|
]---0--0--0-0--0--0--0--0-0--3-----2------2-------------|
]----------------------------------2------3-------------|
]-------------------------------------------------------|

guest
You may want to rate the tab now too:
select rating
Wanna post a correction for this tab? Suggest correction