Oops, an error
Loading. Please wait.

Till I Am Myself Again Bass Tab

version 1
version 1

Whole song

Interactive

1,398 views 3 this week
no commentswrite comment
1 2 3 4 5
please rate
add to favorites
launch autoscroll
font size
0
reset
guitar tuner
Autoscroll
slow
fast
+/-
esc
set tempo
stop
Help us to improve Ultimate-Guitar.com Take our survey!
×
Author
Difficulty
intermediate
I wrote this tab to try keep the spacing of the notes consistent in the tab.
Play lettered frets as A=10th fret, B=11th, and so on.

[INTRO]
           G        C        G        C         
G:--------|--------|--------|--------|--------|
D:--------|--------|5--55---|--------|54-202--|
A:--------|------35|------53|------35|------2-|
E:--------|3--33---|--------|3--33---|--------|

[VERSE]
  G                         G                    C                   G
    I want to know where my confidence went      One day it all disappeared
          G          D/F#  Em                    C                      D
  And I'm lying in a hotel room miles away       Voices next door in my ear   Well

  G                G                             C                        G
  Day time is bad, night time worse              Hope that I can get home soon
          G             D/F#       Em            C                     D
  But the half-finished bottles of inspiration   Lie like ghosts in my room


  C                D                         C                         D
  I want to go   I know I can't stay     But I don't want to run   Feeling this way

  G        G        C        G        G   D/F# Em       C        D
G:--------|--------|--------|--------|--------|--------|--------|--------|
D:--------|--------|--------|--------|--------|---2-20-|--------|--------|
A:--------|------02|3--33---|--------|--------|----2--2|3--33--3|5--55---|
E:3--33---|3--33---|--------|3--33---|3--32--2|0-------|--------|--------|

  G        G        C        G        G   D/F# Em       C        D
G:--------|--------|--------|--------|--------|--------|--------|--------|
D:--------|5--55---|--------|--------|--------|--------|--------|--------|
A:-------5|------02|3--33---|--------|--------|------2-|3--33-3-|5--55---|
E:3--33---|--------|--------|3--33---|3--32--2|0--00---|--------|--------|

  C        D        C        D        D
G:--------|--------|--------|--------|-----457|
D:--------|--------|--------|-------4|45577---|
A:3--33-3//5--55-5-|3--33-3//5--5577-|--------|
E:--------|--------|--------|--------|--------|

[CHORUS]
      Am  Bm  C    D          Am  Bm  C    D          Am  Bm  C    D     G
  Til I       am myself   Til I       am myself   Til I       am myself again

  Am  Bm   C   D    Am  Bm   C   D    Am  Bm   C   D    G        G
G:--------|--------|--------|--------|--------|--------|--------|--------|
D:--------|------47|--------|------47|--------|-------4|--------|--------|
A:0--02--2|3--357--|0--02--2|3--357--|0--02--2|3--357--|--------|--------|
E:--------|--------|--------|--------|--------|--------|3~~~~~~~~~~~~~~~~|

[VERSE]
            G                      G                    C                      G
  There's a seat on the corner   I keep every night     Wait til the evening begins
    G           D/F#           Em                       C                        D
  I feel like a stranger from another world             But at least I'm living 

again

            G                        G         
  There are nights full of anger     Words that are thrown
  C                              G
  Tempers that are shattered and thin                 
  G                  D/F#      Em                     C                        D
  And the moments of magic are just too short         They're over before they begin


        C                   D                C              D
  Well, I know it's time    One big step     I can't go     I'm not ready yet

  G        G        C        G        G   D/F# Em       C        D
G:--------|--------|--------|--------|--------|--------|--------|--------|
D:5--55---|5--55---|--------|5--55---|5--54--4|2--22---|------5-|--------|
A:--------|------02|3--33---|------5-|--------|------02|3--333-3|5--55---|
E:--------|--------|--------|--------|--------|--------|--------|--------|

  G        G        C        G        G   D/F# Em       C        D
G:--------|--------|--------|--------|--------|-----0--|--------|--------|
D:--------|--------|--------|--------|5--54--4|2--22-2-|--------|--------|
A:--------|----252-|3--33---|-------5|--------|-------2|3--33-3-|5--55---|
E:3--33---|3--3---3|--------|3--33---|--------|--------|--------|--------|

  C        D        C        D        D
G:--------|--------|--------|--------|-----457|
D:--------|--------|--------|-------4|45577---|
A:3--33-3//5--55-5-|3--33-3//5--5577-|--------|
E:--------|--------|--------|--------|--------|

[CHORUS]
      Am  Bm  C    D          Am  Bm  C    D          Am  Bm  C    D     G
  Til I       am myself   Til I       am myself   Til I       am myself again

  Am  Bm   C   D    Am  Bm   C   D    Am  Bm   C   D    G        G
G:--------|--------|--------|--------|--------|--------|--------|--------|
D:--------|------47|--------|------4-|--------|-------4|--------|--------|
A:0--02--2|3--357--|0--02--2|3--357-7|0--02--2|3--357--|--------|--------|
E:--------|--------|--------|--------|--------|--------|3~~~~~~~~~~~~~~~~|

[INSTRUMENTAL]
  D        C        G   C    G        Em       Bm       C        D  
G:--------|--------|--------|--------|-----0--|--------|--------|--------|
D:--------|--------|------2-|5---5-4-|2--22-20|-----0--|--------|--------|
A:5--55-02|3--33-5-|----35-5|---5----|--------|2--22-20|3--33-3-|5--55-5-|
E:--------|--------|3--3----|--------|--------|--------|--------|--------|

  C        D        G   D/F# Em       C        C        D        D   C D  G G
G:--------|--------|--------|--------|--------|--------|--------|--------|-|--------
D:--------|--------|5--54-4-|2--22---|--------|----3-5-|----474-|--------|-|--------
A:3--33-34|5--55-5-|--------|--------|3--33---|3--3-3-3|5--5---5|5--53-5-|-|-----35-
E:--------|--------|--------|--------|------3-|--------|--------|--------|3|---3----

[VERSE]
  G                     G                     C                       G
  I had a dream that my house was on fire     People laughed while it burned   Well
  G          D/F#      Em                              C                    D  
  I tried to run by my legs were numb         I had to wait til the feeling returned

  G                        G                  C                        G
  I don't need a doctor to figure it out      I know what's passing me by
  G                  D/F#    Em               C                    D
  When I look in the mirror  Sometimes I see  Traces of some other guy     Well...


  C                D                         C                         D
  I want to go   I know I can't stay         I don't want to run   Feeling this way

  G        G        C        G        G   D/F# Em       C        D
G:--------|--------|--------|--------|--------|--------|--------|--------|
D:5~~~~~~~/9-------|A-------|9-----9//H---G---|E---C---|A-------|--------|
A:--------|--------|--------|--------|--------|--------|-------A\5-------|
E:--------|--------|--------|--------|--------|--------|--------|--------|

  G        G        C        G        G   D/F# Em       C        D
G:--------|--------|--------|--------|--------|-----0--|--------|--------|
D:--------|--------|--------|------2-|5--54--4|2--22-20|--------|--------|
A:--------|-----2--|3--33---|----35-5|--------|--------|3--33-3-|5--55---|
E:3--33---|3--35-53|--------|3--3----|--------|--------|--------|--------|

  C        D        C        D        D
G:--------|--------|--------|--------|-----457|
D:--------|--------|----3-5-|-------4|45577---|
A:3--33-3//5--55-5-|3--3-3-3|5--5577-|--------|
E:--------|--------|--------|--------|--------|

[CHORUS]
      Am  Bm  C    D          Am  Bm  C    D          Am  Bm  C    D     G
  Til I       am myself   Til I       am myself   Til I       am myself again

  Am  Bm   C   D    Am  Bm   C   D    Am  Bm   C   D    G        G
G:--------|--------|--------|--------|--------|--------|--------|--------|
D:--------|------47|--------|------47|--------|------22|--------|--------|
A:0--02--2|3--357--|0--02--2|3--357--|0--02--2|3--355--|--------|--------|
E:--------|--------|--------|--------|--------|--------|3~~~~~~~~~~~~~~~~|

[CODA]
  D        C        G        G        D        C        G        G        
G:--------|--------|--------|--------|--------|--------|--------|--------|
D:----474-|----2-3-|5--52---|--------|----4---|--------|--------|--------|
A:5--5---5|3--3-3-3|-----52-|----2-33|5--5--02|3--33---|--------|-------3|
E:--------|--------|-------5|3--3-3--|-----3--|------02|3--33---|3--33-3-|

  D        C        G        G        D        C        G
G:--------|--------|--------|-4------|--------|--------|--------|
D:----4---|--------|--------|5-5-32--|----4---|--------|--------|
A:5--5--02|3--33---|------5-|---5--5-|5--5--02|3--33---|--------|
E:-----3--|--------|3--33---|-------5|-----3--|--------|3~~~~~~~|


Tabbed by Michael Oxner
moxner@nbnet.nb.ca
October 1st, 2012
Suggest correction
What's this?
You can suggest a correction to this tab. Community and Mods will review your correction and vote to approve or reject it.
comments
We did not receive enough feedback on this tab! Please rate:
print report bad tab
1 2 3 4 5
guest
You may want to rate the tab now too:
select rating
Please do not post tabs as comments. Select "correction" instead!