Oops, an error
Loading. Please wait.

12 Bar Blues Tab

version 2
version 2

Whole song

Interactive

76,831 views 201 this week
3 commentsread comments
1 2 3 4 5
x 11
add to favorites
launch autoscroll
font size
0
reset
how to read this tab
guitar tuner
Autoscroll
slow
fast
+/-
esc
set tempo
stop
Help us to improve Ultimate-Guitar.com Take our survey!
×
Author
This is one of the many 12 bar blues. This is the first one that my guitar
teacher taught me. This can be played absolutely anywhere on the neck but I
practice is in the A position.

e:---------------------------------------------------------------------------------------------------------|
G:---------------------------------------------------------------------------------------------------------|
B:----------------------------------------------------------5-5-7-7------5-5-7-7---------------------------|
D:-----5-5-7-7------5-5-7-7------5-5-7-7------5-5-7-7----7-7----------7-7-------------5-5-7-7------5-5-7-7-|
A:--7-7----------7-7----------7-7----------7-7--------5-5----------5-5-------------7-7----------7-7--------|
E:55----------5-5----------5-5----------5-5-------------------------------------5-5----------5-5-----------|

e:----------------------------------------------------|
G:----------------------------------------------------|
B:-----7-7-8-8------5-5-7-7---------------------------|
D:--8-8----------7-7-------------5-5-7-7------5-5-7-7-|
A:77----------5-5-------------7-7----------7-7--------|
E:-------------------------5-5----------5-5-----------|

Repeat as needed. This very famous and used in many blues songs. I love it!
Suggest correction
comments
print report bad tab
3 comments total.
0 reply
VDuffield 102 Apr 30, 2012 06:57 PM

Palm muting sounds better.... leave out 77
88 7788. It'll be better........... But I can't agree this is very famous because this is a three star piece you have here.......... Just try to update!!!!!

0 reply
VDuffield 102 Apr 30, 2012 06:57 PM

Doubt its a cause my version (version 3 is A) :)

0 reply
jeromie 55 Mar 04, 2015 08:28 PM

sounds more correct going to 77 99 7799

guest
You may want to rate the tab now too:
select rating
Wanna post a correction for this tab? Suggest correction