Oops, an error
Loading. Please wait.

Blues Jammin Tab

version 1
version 1

Whole song

57,813 views 165 this week
2 commentsread comments
1 2 3 4 5
x 17
add to favorites
launch autoscroll
font size
0
reset
how to read this tab
guitar tuner
Autoscroll
slow
fast
+/-
esc
set tempo
stop
Help us to improve Ultimate-Guitar.com Take our survey!
×
Author
Difficulty
advanced
Blues – 12 Bar Blues
___________________________________________________________________________________________

Two Guitar   12 Bar Blues Jam




|            E            |            E          |            E           |            E
[Guitar 1]
|-------------------------------------------------|-----------------------------------------------|
|-------------------------------------------------|-----------------------------------------------|
|-------------------------------------------------|-----------------------------------------------|
|-------------------------------------------------|-----------------------------------------------|
|--------------2--2--4--4--5--5--4--4--2--2-------|-------------2--2--4--4--5--5--4--4--2--2------|
|--0--0--4--4--------------------------------4--4-|-0--0--4--4--------------------------------4--4|

[Guitar 2]
|-------------------------------------------------|-----------------------------------------------|
|-------------------------------------------------|-----------------------------------------------|
|-------------------------------------------------|-----------------------------------------------|
|-------------------------------------------------|-----------------------------------------------|
|--2--2--4--2--2--2--4--2--2--2--4--2--2--2--4--2-|-2--2--4--2--2--2--4--2--2--2--4--2--2--2—-4--2|
|--0--0--0--0--0--0--0--0--0--0--0--0--0--0--0--0-|-0--0--0--0--0--0--0--0--0--0--0--0--0--0--0--0|



|            A            |            A          |            E           |            E
[Guitar 1]
|-------------------------------------------------|-----------------------------------------------|
|-------------------------------------------------|-----------------------------------------------|
|-------------------------------------------------|-----------------------------------------------|
|--------------2--2--4--4--5--5--4--4--2--2-------|-----------------------------------------------|
|--0--0--4--4--------------------------------4--4-|-------------2--2--4--4--5--5--4--4--2--2------|
|-------------------------------------------------|-0--0--4--4--------------------------------4--4|

[Guitar 2]
|-------------------------------------------------|-----------------------------------------------|
|-------------------------------------------------|-----------------------------------------------|
|-------------------------------------------------|-----------------------------------------------|
|--2—-2--4—-2—-2—-2—4--2--2--2—-4--2—-2--2--4--2--|-----------------------------------------------|
|--0—-0—-0-—0--0—-0—0—-0-—0—-0—-0-—0—-0—-0—-0-—0--|-2--2--4--2--2--2--4--2--2--2--4--2--2--2—-4-2-|
|-------------------------------------------------|-0--0--0--0--0--0--0--0--0--0--0--0--0—-0—-0-0-|



|            B            |            A          |            E           |            B
[Guitar 1]
|-------------------------------------------------|-----------------------------------------------|
|-------------------------------------------------|-----------------------------------------------|
|-------------------------------------------------|-----------------------------------------------|
|--------1--1--4--4--1--1--------------2--2-------|---------------------------4--4--4--4--4—-4----|
|--2--2--------------------0--0--4--4--------4--4-|-------------2--2----------2--2--2--2—-2—-2----|
|-------------------------------------------------|-0--0--4--4--------4--4------------------------|

[Guitar 2]
|-------------------------------------------------|-----------------------------------------------|
|-------------------------------------------------|-----------------------------------------------|
|-------------------------------------------------|-----------------------------------------------|
|------------------------2--2--4—-2--2--2--4--2---|---------------------------4--4--4--4--4--4----|
|9--9--11-9--9--9—11-9—--0--0--0--0--0--0—-0--0---|-2--2--4--2--2--2--4--2----2--2--2--2--2--2—---|
|7--7--7--7--7--7--7-7----------------------------|-0--0--0--0--0--0--0--0------------------------|








fb:hitlerinski@rocketmail.com                         twitter.com/iamsirhitler
hitlerinski07.multiply.com                           guitar 09287013683 lessons
Suggest correction
comments
print report bad tab
2 comments total.
-1 reply
DiscomfortSitty 10 Jul 22, 2011 01:36 AM

Dude i just learned this. this is realy cool and sounds great but i changed the Rythem too
A|-2-2-2-4-4-4-2-2-2-4-4-4-5-5-5|
E|-0-0-0-0-0-0-0-0-0-0-0-0-0-0-0|
then do the same thing on
D|-2-2-2-4-4-4-2-2-2-4-4-4-5-5-5|
A|-0-0-0-0-0-0-0-0-0-0-0-0-0-0-0|
i thought it sounded a little more motown

-1 reply
hitler01_nazi 51 Aug 28, 2012 09:39 AM

yes, i do that.. add a note on the fifth fret.
tnx for the comment..

guest
You may want to rate the tab now too:
select rating
Wanna post a correction for this tab? Suggest correction