Oops, an error
Loading. Please wait.

We Aint Got Nothin Yet bass

112 views 1 this week
no commentswrite comment
1 2 3 4 5
x 3
add to favorites
×
Save as Personal and add changes to this tab that will be seen only by you. Learn more ›
×
You can save this tab as Personal to edit and correct it or add notes. All changes will be seen only by you. Learn more »
launch autoscroll
font size
0
reset
guitar tuner
edit
Autoscroll
slow
fast
+/-
esc
set tempo
stop
Author
(We Ain't Got) Nothin' Yet
Blues Magoos
Written by Mike Esposito, Ron Gilbert and Ralph Scala; released as a single with "Gotta Get Away" as the B-side,
and on the album "Psychedelic Lollipop".

Intro:
G|------ ------ ------ ------|------ ------ ------ ------|
D|---------------------------|---------------------------|
A|3--------------------------|---------------------------|
E|---------------------------|---------------------------|



G|------ ------ ------ ------|------ ------ ------ ------|
D|---------------------------|---------------------------|
A|1--------------------------|---------------------------|
E|---------------------------|---------------------------|



G|------ ------ ------ ------|------ ------ ------ ------|
D|-------1-------------------|-------1------3---1--------|
A|3----------3--1----------1-|3----------3---------3-----|
E|---------------------3-----|---------------------------|



G|------ ------ ------ ------|------ ------ ------ ------|
D|-------1-------------------|-------1------3---1--------|
A|3----------3--1----------1-|3----------3-------------1-|
E|---------------------3-----|---------------------------|
                                                       Oh,

Verse:
G|------ ------ ------ ------|------ ------ ------ ------|
D|-------1-------------------|-------1------3---1--------|
A|3----------3--1----------1-|3----------3---------3---1-|
E|---------------------3-----|---------------------------|
  one    day    up,    and    next   day    down,      you
             you're        the           you're

G|------ ------ ------ ------|------ ------ ------ ------|
D|-------1-------------------|-------1------3---1--------|
A|3----------3--1----------1-|3----------3---------3---1-|
E|---------------------3-----|---------------------------|
  can't  face   world  with   head   to the ground.    The
             the           your

G|------ ------ ------ ------|------ ------ ------ ------|
D|-------1-------------------|-------1------3---1--------|
A|3----------3--1----------1-|3----------3---------3---1-|
E|---------------------3-----|---------------------------|
  grass  always greener on the other side,  say,       so
      is                                 they

G|------ ------ ------ ------|------ ------ ------ ------|
D|-------1-------------------|-------1------3---1--------|
A|3----------3--1----------1-|3----------3---------3---1-|
E|---------------------3-----|---------------------------|
  don't  worry, boys,  life   be     sweet  some day,
                           will

G|------ ------ ------ ------|------ ------ ------ ------|
D|-------1-------------------|-------1------3---1--------|
A|3----------3--1----------1-|3----------3---------3---1-|
E|---------------------3-----|---------------------------|
  O  -   o - o- o  -   o - o- o  -   o - o- o - o- oh,


G|------ ------ ------ ------|------ ------ ------ ------|
D|-------1-------------------|-------1------3---1--------|
A|3----------3--1----------1-|3----------3---------3---1-|
E|---------------------3-----|---------------------------|
  o  -   o - o- o  -   o - o- o  -   o - o- o - o- oh! We

Bridge:
G|------ ------ ------ ------|------ ------ ------ ------|
D|---------------------------|---------------------------|
A|3--------------------------|---------------------------|
E|---------------------------|---------------------------|
  made   e  -   nough  mistakes,


G|------ ------ ------ ------|------ ------ ------ ------|
D|---------------------------|---------------------------|
A|1--------------------------|---------------------------|
E|---------------------------|---------------------------|
         but you know  we     got    it  takes. Oh,    we
                                  what

G|------ ------ ------ ------|------ ------ ------ ------|
D|---------------------------|---------------------------|
A|---------------------------|---------------------------|
E|5------5------5------5-----|3------3------3------3-----|
  ain't  got    nothin'    yet,                 no,    we


G|------ ------ ------ ------|------ ------ ------ ------|
D|---------------------------|---------------------------|
A|---------------------------|5------5------5------5-----|
E|5------5------5------5-----|---------------------------|
  ain't  got    nothin'    yet.


G|------ ------ ------ ------|------ ------ ------ ------|
D|---------------------------|1------1------1------1-----|
A|3------3------3------3-----|---------------------------|
E|---------------------------|---------------------------|



G|------ ------ ------ ------|------ ------ ------ ------|
D|3------3------3------3-----|5------5------5------5-----|
A|---------------------------|---------------------------|
E|---------------------------|---------------------------|
                                     All right!


G|------ ------ ------ ------|------ ------ ------ ------|
D|-------1-------------------|-------1------3---1--------|
A|3----------3--1----------1-|3----------3---------3---1-|
E|---------------------3-----|---------------------------|



G|------ ------ ------ ------|------ ------ ------ ------|
D|-------1-------------------|-------1------3---1--------|
A|3----------3--1----------1-|3----------3-------------1-|
E|---------------------3-----|---------------------------|


Verse:
G|------ ------ ------ ------|------ ------ ------ ------|
D|-------1-------------------|-------1------3---1--------|
A|3----------3--1----------1-|3----------3---------3---1-|
E|---------------------3-----|---------------------------|
  No     thing  hold   us,    no     thing  keep   down, and
             can           and           can    us

G|------ ------ ------ ------|------ ------ ------ ------|
D|-------1-------------------|-------1------3---1--------|
A|3----------3--1----------1-|3----------3---------3---1-|
E|---------------------3-----|---------------------------|
  some   day our names will   spread all    o - ver town.
                           be

G|------ ------ ------ ------|------ ------ ------ ------|
D|-------1-------------------|-------1------3---1--------|
A|3----------3--1----------1-|3----------3---------3---1-|
E|---------------------3-----|---------------------------|
  We     can get in    while  get -  ting is good,     so
                           the

G|------ ------ ------ ------|------ ------ ------ ------|
D|-------1-------------------|-------1------3---1--------|
A|3----------3--1----------1-|3----------3---------3---1-|
E|---------------------3-----|---------------------------|
  make it on    own,   yeah,  know   that   could.
             your          you           you

G|------ ------ ------ ------|------ ------ ------ ------|
D|-------1-------------------|-------1------3---1--------|
A|3----------3--1----------1-|3----------3---------3---1-|
E|---------------------3-----|---------------------------|
  O  -   o - o- o  -   o - o- o  -   o - o- o - o- oh,


G|------ ------ ------ ------|------ ------ ------ ------|
D|-------1-------------------|-------1------3---1--------|
A|3----------3--1----------1-|3----------3---------3---1-|
E|---------------------3-----|---------------------------|
  o  -   o - o- o  -   o - o- o  -   o - o- o - o- oh! We

Bridge:
G|------ ------ ------ ------|------ ------ ------ ------|
D|---------------------------|---------------------------|
A|3--------------------------|---------------------------|
E|---------------------------|---------------------------|
  got    to     make   the break,


G|------ ------ ------ ------|------ ------ ------ ------|
D|---------------------------|---------------------------|
A|1--------------------------|---------------------------|
E|---------------------------|---------------------------|
        'cause  got    too    much at    stake. Oh,    we
             we

G|------ ------ ------ ------|------ ------ ------ ------|
D|---------------------------|---------------------------|
A|---------------------------|---------------------------|
E|5------5------5------5-----|3------3------3------3-----|
  ain't  got    nothin'    yet,                 no,    we


G|------ ------ ------ ------|------ ------ ------ ------|
D|---------------------------|---------------------------|
A|---------------------------|5------5------5------5-----|
E|5------5------5------5-----|---------------------------|
  ain't  got    nothin'    yet.


G|------ ------ ------ ------|------ ------ ------ ------|
D|---------------------------|1------1------1------1-----|
A|3------3------3------3-----|---------------------------|
E|---------------------------|---------------------------|
                                        Oh!


G|------ ------ ------ ------|------ ------ ------ ------|
D|3------3------3------3-----|5------5------5------5-----|
A|---------------------------|---------------------------|
E|---------------------------|---------------------------|
                     All   right,    here   we go!

Break (solo):
G|------ ------ ------ ------|------ ------ ------ ------|
D|-------1-------------------|-------1------3---1--------|
A|3----------3--1----------1-|3----------3---------3---1-|
E|---------------------3-----|---------------------------|



G|------ ------ ------ ------|------ ------ ------ ------|
D|-------1-------------------|-------1------3---1--------|
A|3----------3--1----------1-|3----------3---------3---1-|
E|---------------------3-----|---------------------------|



G|------ ------ ------ ------|------ ------ ------ ------|
D|-------1-------------------|-------1------3---1--------|
A|3----------3--1----------1-|3----------3---------3---1-|
E|---------------------3-----|---------------------------|



G|------ ------ ------ ------|------ ------ ------ ------|
D|-------1-------------------|-------1------3---1--------|
A|3----------3--1----------1-|3----------3---------3---1-|
E|---------------------3-----|---------------------------|
                                                       We


Bridge:
G|------ ------ ------ ------|------ ------ ------ ------|
D|---------------------------|---------------------------|
A|3--------------------------|---------------------------|
E|---------------------------|---------------------------|
  made   e  -   nough  mistakes,


G|------ ------ ------ ------|------ ------ ------ ------|
D|---------------------------|---------------------------|
A|1--------------------------|---------------------------|
E|---------------------------|---------------------------|
         but you know  we     got    it  takes. Oh,    we
                                  what

G|------ ------ ------ ------|------ ------ ------ ------|
D|---------------------------|---------------------------|
A|---------------------------|---------------------------|
E|5------5------5------5-----|3------3------3------3-----|
  ain't  got    nothin'    yet,                 no,    we


G|------ ------ ------ ------|------ ------ ------ ------|
D|---------------------------|---------------------------|
A|---------------------------|5--------------------------|
E|5------5------5------5-----|---------------------------|
  ain't  got    nothin'    yet.

Outro:
G|------ ------ ------ ------|------ ------ ------ ------|
D|---------------------------|---------------------------|
A|3--------------------------|---------------------------|
E|---------------------------|---------------------------|



G|------ ------ ------ ------|------ ------ ------ ------|
D|---------------------------|---------------------------|
A|1--------------------------|---------------------------|
E|---------------------------|---------------------------|



G|------ ------ ------ ------|------ ------ ------ ------|
D|---------------------------|---------------------------|
A|3--------------------------|---------------------------|
E|---------------------------|---------------------------|

Please e-mail me for any corrections, or write a comment.

            
            
Suggest correction
Creating personal tab
Creating personal tab
You can edit any tab online and save it as your Personal.

You can edit, replace or remove any tab part or add personal notes – all changes will be seen only by you.

Personal tabs can be accessed anytime from any device, even offline.
Learn more »
Give kudos to tab author, rate the tab!
1 2 3 4 5
comments
print report bad tab
guest
You may want to rate the tab now too:
select rating
Wanna post a correction for this tab? Suggest correction