Oops, an error
Loading. Please wait.

Yet To Find chords

1,234 views 9 this week
no commentswrite comment
1 2 3 4 5
3 more votes to show rating
add to favorites
×
Save as Personal and add changes to this tab that will be seen only by you. Learn more ›
×
You can save this tab as Personal to edit and correct it or add notes. All changes will be seen only by you. Learn more »
launch autoscroll
font size
0
reset
transpose
0
reset
display chords
guitar tuner
edit
Autoscroll
slow
fast
+/-
esc
set tempo
stop
Author
Difficulty
Strumming
There is no strumming pattern for this song yet. and get +5 IQ
This is my first tab, i hope you enjoy it.

Yet to find - Blues Pills (acoustic version)

from: https://www.youtube.com/watch?v=MKzfu1wcuow

* ALL CHORDS ARE BARRE CHORDS


INTRO

      ↓  ↑  ↓   ↓  ↑ ↓ ↑ ↓  ↑ ↓ ↑           ↓  ↑ ↓ ↑ ↓  ↑ ↓ ↑   ↓  ↑ ↓ ↑ ↓ ↑  ↑ ↓ ↑ 
e|----5--5--x----------------------------------------5--5-5-5----------------------------|
B|----5--5--x----------------------------------------5--5-5-5----------------------------|
G|----5--5--x---5--5-5-5-5--5-5-5--------------------5--5-5-5---7--7-7-7-7-5--5-5-5------|
D|----5--5--x---4--4-4-4-4--4-4-4-----------7--7-7-7-7--7-7-7---4--4-4-4-4-4--4-4-4------|
A|----7--7--x---5--5-5-5-5--5-5-5-----------7--7-7-7-7--7-7-7---5--5-5-5-5-5--5-5-5------|
E|----5--5--x---x--x-x-x-x--x-x-x-----------5--5-5-5-5--5-5-5----------------------------|



Am                    D
I've been yet to find someone like you baby

Am                     D         C
It's been hard to find someone so true

Am                D
So many souls disguised to look like you

    F                          G                  G#    Am     G     D     C
And even though they try, they can't seem to find their way.


G Am      G      D   C  
  Lay me down in water   

G Am       G        D  C
  feel the earth so cold

G Am       G            D     C
  Wash the sorrows from my soul

G Am      G      D    C 
  One day i'll be whole

Am          G        D
My heart is black as night

Am          G        D
My heart is black as night


      ↓  ↑  ↓   ↓  ↑ ↓ ↑ ↓  ↑ ↓ ↑           ↓  ↑ ↓ ↑ ↓  ↑ ↓ ↑   ↓  ↑ ↓ ↑ ↓ ↑  ↑ ↓ ↑ 
e|----5--5--x----------------------------------------5--5-5-5----------------------------|
B|----5--5--x----------------------------------------5--5-5-5----------------------------|
G|----5--5--x---5--5-5-5-5--5-5-5--------------------5--5-5-5---7--7-7-7-7-5--5-5-5------|
D|----5--5--x---4--4-4-4-4--4-4-4-----------7--7-7-7-7--7-7-7---4--4-4-4-4-4--4-4-4------|
A|----7--7--x---5--5-5-5-5--5-5-5-----------7--7-7-7-7--7-7-7---5--5-5-5-5-5--5-5-5------|
E|----5--5--x---x--x-x-x-x--x-x-x-----------5--5-5-5-5--5-5-5----------------------------|


Am               D
I spend sometime looking for an answer

Am                   D            C
But it's safe to say that i found no truth

Am                  D
But i don't believe next time when i see you

 F                   G               G# Am     G     D     C
I'll be on my way, i won't let you go   away


G Am      G      D   C  
  Lay me down in water   

G Am       G        D  C
  feel the earth so cold

G Am       G            D     C
  Wash the sorrows from my soul

G Am      G      D    C 
  One day i'll be whole

G Am      G      D   C  
  Lay me down in water   

G Am       G        D  C
  feel the earth so cold

G Am       G            D     C
  Wash the sorrows from my soul

G Am      G      D    C 
  One day i'll be whole

Am          G        D
My heart is black as night

Am          G        D
My heart is black as night




            
            
Suggest correction
Creating personal tab
Creating personal tab
You can edit any tab online and save it as your Personal.

You can edit, replace or remove any tab part or add personal notes – all changes will be seen only by you.

Personal tabs can be accessed anytime from any device, even offline.
Learn more »
Give kudos to tab author, rate the tab!
1 2 3 4 5
comments
print report bad tab
guest
You may want to rate the tab now too:
select rating
Wanna post a correction for this tab? Suggest correction