Oops, an error
Loading. Please wait.

Bad Man Tab

256 views 42 this week
no commentswrite comment
1 2 3 4 5
2 more votes to show rating
add to favorites
launch autoscroll
font size
0
reset
how to read this tab
guitar tuner
Autoscroll
slow
fast
+/-
esc
set tempo
stop
Help us to improve Ultimate-Guitar.com Take our survey!
×
Author
Difficulty
Tuning
intermediate
D A D G B E
Song:      Bad Man
Artist:    Blues Saraceno
Album:     Outlaw Blues 2 (2015)
Tuning:    Dropped D
Tabbed by: Alexander Zaytsev

The tab is based on this video https://www.youtube.com/watch?v=RG_3AXUjrd8

[Intro]
       
e|----------------------------------|--------------------------------|
B|----------------------------------|--------------------------------|
G|-----10-7-----7------7----7-------|-----10-7-----7------7----------|
D|----------10-----10----10---10-7--|----------10-----10-------------|
A|----------------------------------|------------------------/10--8--|
D|--0-------------------------------|--0-----------------------------|
  
e|---------------------------------|-------------------------------------------|
B|---------------------------------|--/15--15-15-15-15-15-15-/15--15--15-15----|
G|-----10-7-----7-----7----7-------|-------------------------------------------|
D|----------10----------10---10-7--|-------------------------------------------|
A|---------------------------------|-------------------------------------------|
D|--0--------------0---------------|-------------------------------------------|

[Verse 1]

e|------------------------------|------------------------------|
B|------------------------------|------------------------------|
G|------------------------------|------------------------------|
D|-----3------------------------|-----3------------------------|
A|-------5-3--5-----5-3-5-3-----|-------5-3--5-----5-3-5-3-----|
D|--0------------0----------5b--|--0------------0----------5b--|

e|------------------------------|------------------------------|
B|------------------------------|------------------------------|
G|------------------------------|------------------------------|
D|-----3------------------------|-----3------------------------|
A|-------5-3--5-----5-3-5-3-----|-------5-3--5-----5-3-5-3-----|
D|--0------------0----------5b--|--0------------0----------5b--|

e|--------------------|-----------------------------------|
B|--------------------|-----------------------------------|
G|--------------------|-----------------------------------|
D|--3------------3----|--2--------10--10--10--10--10--10--|
A|--3------------3----|--2--------10--10--10--10--10--10--|
D|--3------------3----|--2--------10--10--10--10--10--10--|

e|---------------------------------|----------------------------------|
B|---------------------------------|----------------------------------|
G|-----10-7-----7-----7----7-------|-----10-7-----7------7----7-------|
D|----------10----------10---10-7--|----------10-----10----10---10-7--|
A|---------------------------------|----------------------------------|
D|--0--------------0---------------|--0-------------------------------|

[Chorus]

e|------------------|-------------------|-----------------------|
B|------------------|-------------------|-----------------------|
G|------------------|-------------------|-----------------------|
D|--0---------------|--3----------------|--5--------10----10----|
A|--0---------------|--3----------------|--5--------10----10----|
D|--0---------------|--3----------------|--5--------10----10----|

e|---------------------------------|----------------------------------|
B|---------------------------------|----------------------------------|
G|-----10-7-----7-----7----7-------|-----10-7-----7------7----7-------|
D|----------10----------10---10-7--|----------10-----10----10---10-7--|
A|---------------------------------|----------------------------------|
D|--0--------------0---------------|--0-------------------------------|

[Verse 2]

e|------------------------------|------------------------------|
B|------------------------------|------------------------------|
G|------------------------------|------------------------------|
D|-----3------------------------|-----3------------------------|
A|-------5-3--5-----5-3-5-3-----|-------5-3--5-----5-3-5-3-----|
D|--0------------0----------5b--|--0------------0----------5b--|

e|------------------------------|------------------------------|
B|------------------------------|------------------------------|
G|------------------------------|------------------------------|
D|-----3------------------------|-----3------------------------|
A|-------5-3--5-----5-3-5-3-----|-------5-3--5-----5-3-5-3-----|
D|--0------------0----------5b--|--0------------0----------5b--|

e|--------------------|-----------------------------------|
B|--------------------|-----------------------------------|
G|--------------------|-----------------------------------|
D|--3------------3----|--2--------10--10--10--10--10--10--|
A|--3------------3----|--2--------10--10--10--10--10--10--|
D|--3------------3----|--2--------10--10--10--10--10--10--|

e|---------------------------------|----------------------------------|
B|---------------------------------|----------------------------------|
G|-----10-7-----7-----7----7-------|-----10-7-----7------7----7-------|
D|----------10----------10---10-7--|----------10-----10----10---10-7--|
A|---------------------------------|----------------------------------|
D|--0--------------0---------------|--0-------------------------------|

[Chorus]

e|-------------------|-------------------|--------------------|-------------------|
B|-------------------|-------------------|--------------------|-------------------|
G|-------------------|-------------------|--------------------|-------------------|
D|--0----------------|--3----------------|--5-------3----3----|--0----------------|
A|--0----------------|--3----------------|--5-------3----3----|--0----------------|
D|--0----------------|--3----------------|--5-------3----3----|--0----------------|


e|-------------------|-------------------|-----------------------|
B|-------------------|-------------------|-----------------------|
G|-------------------|-------------------|-----------------------|
D|--0----------------|--3----------------|--5--------10----10----|
A|--0----------------|--3----------------|--5--------10----10----|
D|--0----------------|--3----------------|--5--------10----10----|

[Solo]

e|-----------------------------------------|-------------------------------------|
B|--/15-15-15-15-15---13-15-13-------------|--18--18--18--18--18--18--15\--------|
G|-----------------------------14-12-14----|-------------------------------------|
D|-----------------------------------------|-------------------------------------|
A|-----------------------------------------|-------------------------------------|
D|-----------------------------------------|-------------------------------------|

e|--------------------------------------|------------------------------------|
B|-----15b--15b----15-13----------------|-----15b--15b----15-13--------------|
G|-----------------------14-12b---------|-----------------------14-12b-------|
D|-------------------------------15-12--|------------------------------------|
A|--------------------------------------|------------------------------------|
D|--------------------------------------|------------------------------------|

e|--------------------------------------|--------------------------------------|
B|-----15b--15b----15-13----------------|--------------------------------------|
G|-----------------------14-12b-----12--|--------------------------------------|
D|-------------------------------15-----|--0-0---0-3-3---3-5-5---5-10-10-10-10-|
A|--------------------------------------|--0-0---0-3-3---3-5-5---5-10-10-10-10-|
D|--------------------------------------|--0-0---0-3-3---3-5-5---5-10-10-10-10-|

e|--------------------------------------|--------------------------------------|
B|--------------------------------------|--------------------------------------|
G|--------------------------------------|--------------------------------------|
D|--0-0---0-3-3---3-5-5---5-10-10-10-10-|--0-0---0-3-3---3-5-5---5-10-10-10-10-|
A|--0-0---0-3-3---3-5-5---5-10-10-10-10-|--0-0---0-3-3---3-5-5---5-10-10-10-10-|
D|--0-0---0-3-3---3-5-5---5-10-10-10-10-|--0-0---0-3-3---3-5-5---5-10-10-10-10-|

[Bridge]

e|-------------------|-------------------|--------------------|-------------------|
B|-------------------|-------------------|--------------------|-------------------|
G|-------------------|-------------------|--------------------|-------------------|
D|--0----------------|--3----------------|--5-------3----3----|--0----------------|
A|--0----------------|--3----------------|--5-------3----3----|--0----------------|
D|--0----------------|--3----------------|--5-------3----3----|--0----------------|

e|-------------------|-------------------|--------------------|---------------------|
B|-------------------|-------------------|--------------------|---------------------|
G|-------------------|-------------------|--------------------|---------------5b----|
D|--0----------------|--3----------------|--5-------3----3----|--0------------------|
A|--0----------------|--3----------------|--5-------3----3----|--0------------------|
D|--0----------------|--3----------------|--5-------3----3----|--0------------------|

e|----------------------|-----------------------|-----------------------|
B|----------------------|-----------------------|-----------------------|
G|---------------2--5-2-|--5~~~----------2--5-2-|-(5)/7-------10--------|
D|--0-------------------|-----------------------|-----------------------|
A|--0-------------------|-----------------------|-----------------------|
D|--0-------------------|-----------------------|-----------------------|
   
e|------------------------------------|
B|------------------------------------|
G|--14--------17--17--17--17--17--17--|
D|------------------------------------|
A|------------------------------------|
D|------------------------------------|

[Chorus]

e|-----------------------|-----------------------|----------------------|
B|-----------------------|-----------------------|----------------------|
G|-----------------------|-----------------------|----------------------|
D|--0----0------0--0—-0--|--3----3------3--3--3--|--5----5----3----3----|
A|--0----0------0--0—-0--|--3----3------3--3--3--|--5----5----3----3----|
D|--0----0------0--0—-0--|--3----3------3--3--3--|--5----5----3----3----|

e|---------------------------------|
B|---------------------------------|
G|-----------/14--14----14----14\--|
D|--0----------------14----14------|
A|--0------------------------------|
D|--0------------------------------|

e|-----------------------|-----------------------|------------------------|
B|-----------------------|-----------------------|------------------------|
G|-----------------------|-----------------------|------------------------|
D|--0----0------0--0--0--|--3----3------3--3--3--|--5----5----10----10----|
A|--0----0------0--0--0--|--3----3------3--3--3--|--5----5----10----10----|
D|--0----0------0--0--0--|--3----3------3--3--3--|--5----5----10----10----|

e|---------------------------------|
B|---------------------------------|
G|-----10-7-----7-----7----7-------|
D|----------10----------10---10-7--|
A|---------------------------------|
D|--0--------------0---------------|

e|--------------------------------|---------------------------------|
B|--------------------------------|---------------------------------|
G|-----10-7-----7------7----------|-----10-7-----7-----7----7-------|
D|----------10-----10-------------|----------10----------10---10-7--|
A|------------------------/10--8--|---------------------------------|
D|--0-----------------------------|--0--------------0---------------|

e|------------------------------------------------|-------------------|
B|--/15--15-15-/15--15-15-13--13--13--13--13--13--|-------------------|
G|------------------------------------------------|-------------------|
D|------------------------------------------------|--0----------------|
A|------------------------------------------------|--0----------------|
D|------------------------------------------------|--0----------------|


************************************

| b   Bend
| /   Slide up

************************************
Suggest correction
Give kudos to tab author, rate the tab!
1 2 3 4 5
comments
print report bad tab
guest
You may want to rate the tab now too:
select rating
Wanna post a correction for this tab? Suggest correction