Oops, an error
Loading. Please wait.

Carolina Blues Bass Tab

64 views 1 this week
1 commentread comment
1 2 3 4 5
x 3
add to favorites
launch autoscroll
font size
0
reset
guitar tuner
Autoscroll
slow
fast
+/-
esc
set tempo
stop
Help us to improve Ultimate-Guitar.com Take our survey!
×
Author
Difficulty
intermediate
[Intro]
Bass starts 0:12
G|---------------------------------------------------------------------------|
D|14-14-14--12-12-12--------12----------------------------------------4p6-4--|
A|--------------------13p14----13p14-13-12------7-5-6-7--0-7\-----5-7-------6|
E|------------------------------------------14----------------0-7------------|

G|------------------------------------9-9-9--7-7-7------7--------------------|
D|--------------4p6--4------------------------------8p9---8p9-8--7-----------|
A|7\-0-7----5-7----------7-7-5-6-7\--------------------------------9---------|
E|--------7------------------------------------------------------------------|


G|---------------------------------------------------------------------------|
D|------------------------4p6-4--------------------4p6--4--------------------|
A|7-7-5-6-7\---7\-----5-7-------6--7--0-7\-----5-7---------------------------|
E|----------------0-7------------------------7-------------------------------|


[Verse]

G|---------------------------------------------------------------------------|
D|--------------------------4p6-4-------------------4p6--4-------------------|
A|7-7-5-6-7\--0-7\------5-7-------6--7--0-7\----5-7--------------------------|
E|-----------------0--7-----------------------7------------------------------|

G|---------------------------------------------------------------7-----------|
D|--------------------------4p6-4----------------------------7-9---9\--------|
A|7-7-5-6-7\--0-7\------5-7-------6--7-7-5-6-7\-0--7-7-5-6-7-----------------|
E|-----------------0--7------------------------------------------------------|


[Chorus]

G|--7-----7-7---------------------------------------------7-----7------------|
D|------------7--------------------------------4p6-4--------------7----------|
A|5---0-5--------------7-5-6-7\--0-7\------5-7-------6--5---0-5--------------|
E|--------------5-3-3-----------------0--7--------------------------0-5-3-5-3|

G|---------------------------------------------------------------------------|
D|-------------------------4p6-4---------------------------------------------|
A|7-7-5-6-7\--0-7\------5-7-------6------------------------------------------|
E|-----------------0--7------------------------------------------------------|

[Verse]

G|---------------------------------------------------------------------------|
D|--------------------------4p6-4-------------------4p6--4-------------------|
A|7-7-5-6-7\--0-7\------5-7-------6--7----7\----5-7--------------------------|
E|-----------------0--7-----------------------7------------------------------|

G|---------------------------------------------------------------------------|
D|--------------------------4p6-4-------------------------------5------------|
A|7---5-6-7\--0-7\------5-7-------6--7-7-5-6-7\-0--7\--7-7--5-7---7-6--------|
E|-----------------0--7------------------------------------------------------|

[Chorus]

G|--7-----7------------------------------------------------------------------|
D|----------7\----------------------------------------5---5------------------|
A|5---0-5---------------------7-7-5-6-7\--0-7\--0-5-7---7---7-6--------------|
E|-------------5-5--5p3-3--3-------------------------------------------------|

G|--7-----7------------------------------------------------------------------|
D|----------7\----------------------------------------4-5-4------------------|
A|5---0-5---------------------7-7-5-6-7\--0-7\----5-7-------7-0--------------|
E|-------------5-5--5p3-3--3--------------------7----------------------------|

[Guitar solo]

G|-----------------------------------------------------7---7-9-7-------------|
D|--------------------------4p6-4--------------------9---9-------9-8-7-------|
A|7-7-5-6-7\--0-7\------5-7-------6--7-7-5-6-7\-0--7-------------------9-8---|
E|-----------------0--7------------------------------------------------------|

G|---------------------------------------------------------------------------|
D|--------------------------4p6-4-------------------4p6--4-------------------|
A|7\-5-6-7\--0-7\-------5-7-------6--7\-0-7\----5-7--------------------------|
E|--------------------7-----------------------7------------------------------|

G|--------------------------------------------------------7------------------|
D|--------------------------4p6-4-----------------5---5/9---9-8-7------------|
A|7\-5-6-7\--0-7\-------5-7-------6--7\-0-7\--5-7---7-------------9-7-6-7----|
E|--------------------7------------------------------------------------------|

G|--7-----7------------------------------------------------------------------|
D|----------7\-----------------------------------------4p6-4-----------------|
A|5---0-5---------------------7--5-6-7\--0-7\------5-7-------6---------------|
E|-------------5-5--5p3-3--3-------------------0-7---------------------------|


G|--7------------------------------------------------------------------------|
D|-------------7-----------------------------------------4p6-4---------------|
A|5---0-5-5--5-------------------7-7-5-6-7\--0-7\--0-5-7-------7-5-----------|
E|----------------5-5-5-5-3--3-----------------------------------------------|

G|---------------------------------------------------------------------------|
D|---------------------------------------------------------------------------|
A|-------------------7-5-----------------------------------------------------|
E|0--2--2-2-0-3--3-5-----7-5-------------------------------------------------|7x

G|---------------------------------------------------------------------------|
D|------------------------------------------------4p6-4-----------------4p6--|
A|------------------------7-7-5-6-7\--7\--------7-------6--7--7\----5-7-----4|
E|0--2--2-0-3--3-5-5-0-x-------------------0-7-------------------7-----------|

[Verse]

G|---------------------------------------------------------------------------|
D|------------------------4p6-4-------------------4p6--4---------------------|
A|7--5-6-7\---7\------5-7-------6---7\--7\----5-7----------------------------|
E|------------------7-----------------------7--------------------------------|

G|--------------------------------------------------------------7------------|
D|--------------------------4p6-4-----------------------5---5/9---9-7--------|
A|7\-5-6-7\--0-7\-------5-7-------6--7\-0-7\----5---5-7---7-----------9-7----|
E|--------------------7-----------------------7---7--------------------------|

[Chorus]


G|--7-----7------------------------------------------------------------------|
D|----------7\----------------------------------------5----------------------|
A|5---0-5---------------------7-7-5-6-7\--0-7\----5-7---7-6-5----------------|
E|-------------5-5--5p3-3--3--------------------7-------------7--------------|

G|---------------------------------------------------------------------------|
D|-------------7-7-7-7----------------------------------4p6-4----------------|
A|5----5-5-5-5-------------------7-7-5-6-7\--0-7\---5-7-------7-0------------|
E|---5-----------------5-3--3-3-------------------7--------------------------|

[Outro]

G|---------------------------------------------------------------------------|
D|---------------------4p6-4--------------------4p6-4------------------------|
A|7--5-6-7\--7\----5-7-------6--7\--0-7\----5-7-------6--7\--0-7\------------|
E|---------------7------------------------7----------------------------------|

G|---------------------------------------------------------------------------|
D|14-14-14--12-12-12-------12------------------------------------------------|
A|-------------------13p14----13p14-13-12------------------------------------|
E|----------------------------------------14--12-10-11-12\--12-12-10-11-12\--|


************************************

| x   Dead note
| p   Pull-off
| /   Slide up
| \   Slide down

************************************
Suggest correction
Give kudos to tab author, rate the tab!
1 2 3 4 5
comments
print report bad tab
1 comment total.
0 reply
teller123 10 Nov 02, 2016 05:23 PM

Awesome work! Thanx

guest
You may want to rate the tab now too:
select rating
Wanna post a correction for this tab? Suggest correction