Oops, an error
Loading. Please wait.

Hook Bass Tab

version 1
version 1

Whole song

Interactive

7,030 views 24 this week
no commentswrite comment
1 2 3 4 5
x 4
add to favorites
launch autoscroll
font size
0
reset
guitar tuner
Autoscroll
slow
fast
+/-
esc
set tempo
stop
Help us to improve Ultimate-Guitar.com Take our survey!
×
Difficulty
novice
Played in standard tuning

Main Line                    Play after every other main line
G--------------------------)-------------|
D--------------------------)-------------|
A----7-44444-5-5----555777-)-775542------|
E-5-5-----------5-5--------)---------(5)-|

Later in the song he changes to quicker notes
but they are played in the same pattern
G----------------------------------------|
D----------------------------------------|
A----77----44-55----55-775542------------|
E-55----22-------55----------------------|

Ending
G----------------------------------------|
D----------------------------------------|
A-77554h540------------------------------|
E----------------------------------------|
Suggest correction
comments
print report bad tab
guest
You may want to rate the tab now too:
select rating
Wanna post a correction for this tab? Suggest correction