Oops, an error
Loading. Please wait.

Hook bass

version 2
version 2

Whole song

Interactive

28 views 9 this week
no commentswrite comment
1 2 3 4 5
3 more votes to show rating
add to favorites
×
Save as Personal and add changes to this tab that will be seen only by you. Learn more ›
×
You can save this tab as Personal to edit and correct it or add notes. All changes will be seen only by you. Learn more »
launch autoscroll
font size
0
reset
guitar tuner
edit
Autoscroll
slow
fast
+/-
esc
set tempo
stop
Artist: Blues Traveler
Song: Hook
Tuning - Standard
Time - 4/4 83bpm
tabbed by electricbunny

[Intro]
G|------------------------4-------|--------------------------------|
D|------------------2-------------|4-------------------------------|
A|--------------------------------|--------4---4-4-4---4---4---5-4-|
E|5---5---5-0---0-----------------|--------------------------------|
 
G|--------7---7-------------------|--------------------------------|
D|--------------7-----------------|0---0-0-0---0-2---2-0---0-------|
A|5---5---------------------------|----------------------4---3-1---|
E|----------------5-5-----5-------|--------------------------------|
 
[Verse] 
G|--------------------------------|--------------------------------|
D|------------0-0-2---2-----------|4---4-----4-2-------------------|
A|0-----0-0-0---------------------|--------------5-4---4-------4-4-|
E|------------------------0-------|--------------------------------|
 
G|--------2-----------------------|------------------9-9-7-7-6-7---|
D|0---0---------------------------|0---0---0-----------------------|
A|------------2---0---0-------0-0-|------------7-7-----------------|
E|--------------------------------|--------------------------------|
 
G|--------------------------------|--------------------------------|
D|--------------0-2---2-----2-0-2-|4---4-----4-2-------------------|
A|0-----0-0-2-4-------------------|--------------5-4---4-------4-4-|
E|--------------------------------|--------------------------------|
 
G|--------------------------------|------------------9-9-7-7-6-7---|
D|0---0---0-----0-----------------|------------------------------7-|
A|----------------0---0---0-------|5-----5-5---7-7-----------------|
E|--------------------------------|--------------------------------|
 
G|--------------------------------|--------------------------------|
D|--------------0-2---2-----2-0-2-|4---4-----4-2-------------------|
A|0-----0-0-2-4-------------------|--------------5-4---4-------4-4-|
E|--------------------------------|--------------------------------|
 
G|--------------------------------|--------7---------9-9-7-7-6-7---|
D|0---0---0-----0-----------------|0-----0---9-9-----------------7-|
A|----------------0-----0-0-------|--------------------------------|
E|--------------------------------|--------------------------------|
 
G|--------------------------------|--------------------------------|
D|--------------0-2---2-----2-0-2-|4---4-----4-2-------------------|
A|0-----0-0-2-4-------------------|--------------5-4---4-------4-4-|
E|--------------------------------|--------------------------------|
 
G|--------------------------------|--------7---------9-9-7-7-6-7---|
D|0---0---0-----0-----------------|------0---9-9-----------------7-|
A|----------------0-----0-0-------|--------------------------------|
E|--------------------------------|0-------------------------------|
 
[Chorus] 
G|----------------------------4-2-|--------------------------------|
D|----------------2---------------|4-----4-----4-------------------|
A|--------------------------------|--------4-----5-4-------4-------|
E|5-----------5-5-----------------|--------------------------------|
 
G|------------2-2-----------------|--------------7-9---7---5-6-----|
D|0-------------------------------|0-------0-------------------7---|
A|----------------0-----------0-0-|----0-0-------------------------|
E|--------------------------------|--------------------------------|
 
G|----------------------------4-2-|------------------------6---6---|
D|----------------2---------------|4-----4-----4-------------------|
A|--------------------------------|--------4-----5-4---4-4---------|
E|5-----------5-5-----------------|--------------------------------|
 
G|------------2-2-----------------|--------------7-9---7---5-6-----|
D|0-------------------------------|0-------0-------------------7---|
A|----------------0-----------0-0-|------0-------------------------|
E|--------------------------------|--------------------------------|
 
[Verse] 
G|--------------------------------|--------------------------------|
D|------------0-0-2---2-----------|4---4-----4-2-------------------|
A|0-----0-0-0---------------------|--------------5-4---4-------4-4-|
E|------------------------0-------|--------------------------------|
 
G|--------2-----------------------|------------------9-9-7-7-6-7---|
D|0---0---------------------------|--------------------------------|
A|------------2---0---0-------0-0-|5---5---5---7-7-----------------|
E|--------------------------------|--------------------------------|
 
G|--------------------------------|--------------------------------|
D|--------------0-2---2-----2-0-2-|4---4-----4-2-------------------|
A|0-----0-0-2-4-------------------|--------------5-4---4-------4-4-|
E|--------------------------------|--------------------------------|
 
G|--------7-----------------------|------------------9-9-7-7-6-7---|
D|--------------------------------|------------------------------7-|
A|5---5---------5-----------------|5-----5-5---7-7-----------------|
E|----------------5---5---5-------|--------------------------------|
 
G|--------------------------------|--------------------------------|
D|--------------0-2---2-----2-0-2-|4---4-----4-2-------------------|
A|0-----0-0-2-4-------------------|--------------5-4---4-------4-4-|
E|--------------------------------|--------------------------------|
 
G|--------------------------------|--------7---------9-9-7-7-6-7---|
D|0---0---0-----0-----------------|----------9-9-----------------7-|
A|----------------0-----0-0-------|5-----5-------------------------|
E|--------------------------------|--------------------------------|
 
G|--------------------------------|------------------------6-------|
D|--------------0-2---2-----2-0-2-|4---4-----4---------------------|
A|0-----0-0-2-4-------------------|------------7-5-4---4-------4-4-|
E|--------------------------------|--------------------------------|
 
G|--------7-----------------------|--7-----7---------9-9-7-7-6-7---|
D|--------------------------------|----------9-9-----------------7-|
A|5---5---------5-----------------|5-----5-------------------------|
E|----------------5-----5-5-------|--------------------------------|
 
[Chorus] 
G|----------------------------4-2-|--------------------------------|
D|----------------2---------------|4-----4-----4-------------------|
A|--------------------------------|--------4-----5-4-------4-------|
E|5-----------5-5-----------------|--------------------------------|
 
G|--------7-----------------------|--7-----7-7---7-9---7-----6-----|
D|------------7-7-----------------|------------------------10--7---|
A|5-------------------------------|5-------------------------------|
E|----------------5---5-------5-5-|--------------------------------|
 
G|----------------------------4-2-|------------------------6---6---|
D|----------------2---------------|4-----4-----4-------------------|
A|--------------------------------|--------4-----5-4---4-4---------|
E|5-----------5-5-----------------|--------------------------------|
 
G|------------2-2-----------------|--7-----7-----7-9---7-----6-----|
D|0-------------------------------|------------------------10--7---|
A|----------------0-----------0-0-|5-----5-------------------------|
E|--------------------------------|--------------------------------|
 
[Harmonica Solo] 
G|------------------9-----9-------|--------6-------6-----6---------|
D|--------------------------------|4-----------4-7-----------------|
A|0-------0-------7---------------|--------------------4-------4---|
E|--------------------------------|--------------------------------|
 
G|--7---7-7-----------------------|--7-----------9---9-7-7-6-6-----|
D|----------------------7---7-----|----------------------------7-7-|
A|5-------------------------------|5-----5-5-----------------------|
E|--------------5-5---5-------5-5-|--------------------------------|
 
G|------------------------9-------|--------------------------------|
D|----------------------------9-7-|4-----4-----4-------------------|
A|0---0-------0-0-7---7-----------|--------4-----5-4---4-----------|
E|--------------------------------|--------------------------------|
 
G|--------7-----------------------|--7-----7-7-7-7-9-9-7-7-7-6-----|
D|------------7-7-----------------|----------------------------7---|
A|5-------------------------------|5-------------------------------|
E|----------------5---5-------5-5-|--------------------------------|
 
G|------------------------9-------|------------------------6---6---|
D|----------------------------9-7-|4-----4-----4-------------------|
A|0-----------0-0-7---0-----------|--------4-----5-4---4-4---------|
E|--------------------------------|--------------------------------|
 
G|--------7-----------------------|--7-----7-----7-9---7-----6-----|
D|------------7-7-----------------|------------------------10--7---|
A|5-------------------------------|5-----5-------------------------|
E|----------------5-----------5-5-|--------------------------------|
 
[Bridge] 
G|----------------9-9-------------|------6-6---------6---6-6-------|
D|--------7---------------9-----7-|--------------------------------|
A|0-------------------------------|------------------------------5-|
E|--------------------------------|--------------5-----------------|
 
G|7-----7-------------------------|----7-------7---9---8-8-7---6---|
D|------------------------7---7---|--------------------------------|
A|--------------5---------------4-|5-------5-----------------------|
E|----------------5---5-----------|--------------------------------|
 
G|----------------9-9-------------|------6-6---------6---6-6-------|
D|--------7---------------9-----7-|--------------------------------|
A|0-------------------------------|------------------------------5-|
E|--------------------------------|--------------5-----------------|
 
G|7-----7-------------------------|----7-------7---9-9-8-8-7-7-6---|
D|----------7-------------7---7---|------------------------------7-|
A|--------------5---------------4-|5-------5-----------------------|
E|----------------5---5-----------|--------------------------------|
 
G|----------------9-9-------------|------6-6---------6---6-6-------|
D|--------7---------------9-----7-|--------------------------------|
A|0-------------------------------|------------------------------5-|
E|--------------------------------|--------------5-----------------|
                                                                    
G|7-----7-------------------------|----7-------7---9---8-8-7---6---|
D|------------------------7---7---|--------------------------------|
A|--------------5---------------4-|5-------5-----------------------|
E|----------------5---5-----------|--------------------------------|
 
G|----------------9-9-------------|------6-6---------6---6-6-------|
D|--------7---------------9-----7-|--------------------------------|
A|0-------------------------------|------------------------------5-|
E|--------------------------------|--------------5-----------------|
 
G|7-----7-------------------------|----7-------7---9-9-8-8-7-7-6---|
D|------------------------7---7---|------------------------------7-|
A|--------------5---------------4-|5-------5-----------------------|
E|----------------5---5-----------|--------------------------------|
 
[Outro] 
G|------2-2-2-------------4-2-4-2-|--------------------------6-----|
D|----------------2---------------|4-----4-----4-------------------|
A|--------------------------------|--------4-----5-4-------4-----3-|
E|5---5-------5-5-----------------|--------------------------------|
 
G|--------7-----------------------|--------------7-9---7-----6-----|
D|------------7-7-----------------|------------------------10--7---|
A|5-----5-------------------------|5---0---5-----------------------|
E|----------------5-----------5-5-|--------------------------------|
 
G|----------------------------4-2-|------------------------6---6---|
D|----------------2---------------|4-----4-----4-------------------|
A|--------------------------------|--------4-----5-4---4-4---------|
E|5-----------5-5-----------------|--------------------------------|
 
G|--------7-----------------------|--------------7-9---7-----6-----|
D|------------7-7-----------------|------------------------10--10--|
A|5-----5-------------------------|5-----0-5-----------------------|
E|----------------5-------5---5-5-|--------------------------------|
 
G|2-------------------------------|
D|--------------------------------|
A|--------0-----------------------|
E|--------------------------------|

            
            
Suggest correction
Creating personal tab
Creating personal tab
You can edit any tab online and save it as your Personal.

You can edit, replace or remove any tab part or add personal notes – all changes will be seen only by you.

Personal tabs can be accessed anytime from any device, even offline.
Learn more »
Give kudos to tab author, rate the tab!
1 2 3 4 5
comments
print report bad tab
guest
You may want to rate the tab now too:
select rating
Wanna post a correction for this tab? Suggest correction