Oops, an error
Loading. Please wait.

Just Wait bass

916 views 3 this week
1 commentread comment
1 2 3 4 5
3 more votes to show rating
add to favorites
×
Save as Personal and add changes to this tab that will be seen only by you. Learn more ›
×
You can save this tab as Personal to edit and correct it or add notes. All changes will be seen only by you. Learn more »
launch autoscroll
font size
0
reset
guitar tuner
edit
Autoscroll
slow
fast
+/-
esc
set tempo
stop
hey all you do for the bass part is match this frets up with the chords
(verse: C G D Dsus D Dsus  C G F    and chorus:  Am C G D)  


verse:  C          G        D    C     G     F
G\---------------------------------------------------------
D\--------------------------0------------------------------
A\------3------------------------3-------------------------
E\-----------------3-------------------3-----1-------------

Chorus:  Am        C        G      D
G\---------------------------------------------------------
D\---------------------------------0-----------------------
A\-------0---------3---------------------------------------
E\--------------------------3------------------------------

            
            
Suggest correction
Creating personal tab
Creating personal tab
You can edit any tab online and save it as your Personal.

You can edit, replace or remove any tab part or add personal notes – all changes will be seen only by you.

Personal tabs can be accessed anytime from any device, even offline.
Learn more »
Give kudos to tab author, rate the tab!
1 2 3 4 5
comments
print report bad tab
1 comment total.
0 reply
BigDan3417 0 Aug 12, 2002 08:00 PM

verse:
G\--------------------------------------
D\-------0-----------------------------
A\-3-------5-3----3---------------0-1-2
E\----3-------5-----3--1-1-0-1----------

Chorus: Am C G D
G\--------------------------------------
D\---------------------------------0----
A\-------0---------3--------------------
E\--------------------------3-----------

guest
Wanna post a correction for this tab? Suggest correction